Blink 182 - Everytime I Look For You Chords & Tabs

 

Everytime I Look For You Chords & Tabs

Blink 182 Chords & Tabs

Version: 1 Type: Tab 0 ratings
1 star 2 stars 3 stars 4 stars 5 stars
comments

Everytime I Look For You Tab

   
Blink 182 - Evertime I Look for You


Intro Thingie
0:0-0:14
e--------|--------|--------|
B--------|--------|--------|
G-4--4-4-|-4--4-4-|-4--44--|
D-x--x-x-|-x--x-x-|-x--xx--|
A-2--2-2-|-2--2-2-|-2--22--|
E--------|--------|--------|


Chord After That

Young and Stupid..

e---|
B---|
G-4-|
D-x-|
A-2-|
E---|


0:22-0:30
e---------|--------|--------|--------|
B-----5-4-|----5-4-|----5-4-|----2-4-|
G-4-4-----|--4-----|--4-----|--4-----|
D---------|--------|--------|--------|x2
A---------|--------|--------|--------|
E---------|--------|--------|--------|(guitar 1)

e---------|---------|---------|---------|
B---------|---------|---------|---------|
G-4-4-4-4-|-11111111|-10101010|---------|
D-x-x-x-x-|-x-x-x-x-|-x-x-x-x-|-x-x-x-x-|x2
A-2-2-2-2-|-9-9-9-9-|-7-7-7-7-|-4-4-4-4-|
E---------|---------|---------|---------| *- Four 11's...and Four 10's

0:45-1:00
e-------|--------|--------|
B-------|--------|--------|
G-4-4-4-|-4--4-4-|-4--4-4-|
D-x-x-x-|-x--x-x-|-x--x-x-|
A-2-2-2-|-2--2-2-|-2--2-2-| x8
E-------|--------|--------|
[ Tab from: http://www.guitartabs.cc/tabs/b/blink_182/everytime_i_look_for_you_tab.html ]
1:00-1:03
e---------|---------|---------|---------|
B---------|---------|---------|---------|
G-4-4-4-4-|-4-4-4-4-|-4-4-4-4-|-4-4-4-4-|
D-x-x-x-x-|-x-x-x-x-|-x-x-x-x-|-x-x-x-x-|
A-2-2-2-2-|-2-2-2-2-|-2-2-2-2-|-2-2-2-2-|
E---------|---------|---------|---------|

Riff at 1:45

e---------------------------------|-------------------------|---------|-----------------------------------------------------------------|
B---------------------------------|-------------------------|---------|-----------------------------------------------------------------|
G-4-4-4-4-4-4-4-4-4-4-4-4-4-4-4-4-|-8-8-8-8-8-8-8-8-8-8-8-8-|-11111111|-9-9-9-9-9-9-9-9-9-9-9-9-9-9-9-9-9-9-9-9-9-9-9-9-9-9-9-9-9-9-9-9-|
D-x-x-x-x-x-x-x-x-x-x-x-x-x-x-x-x-|-x-x-x-x-x-x-x-x-x-x-x-x-|-x-x-x-x-|-x-x-x-x-x-x-x-x-x-x-x-x-x-x-x-x-x-x-x-x-x-x-x-x-x-x-x-x-x-x-x-x-|
A-2-2-2-2-2-2-2-2-2-2-2-2-2-2-2-2-|-6-6-6-6-6-6-6-6-6-6-6-6-|-9-9-9-9-|-7-7-7-7-7-7-7-7-7-7-7-7-7-7-7-7-7-7-7-7-7-7-7-7-7-7-7-7-7-7-7-7-|
E---------------------------------|-------------------------|---------|-----------------------------------------------------------------|
Comments