Blink 182 - Everytime I Look For You Chords & Tabs

 

Everytime I Look For You Chords & Tabs

Blink 182 Chords & Tabs

Version: 3 Type: Bass Tab 0 ratings
1 star 2 stars 3 stars 4 stars 5 stars
comments

Everytime I Look For You Bass Tab

   
		    Blink 182- Everytime I Look For You
By: Kris Montgomery                                     
/-slide
~-let ring
G:----------------------------
D:------------------2~--------  
A:---2~----4~-----------------
E:----------------------------(x4)

G:----------------------------
D:---------------------------- 
A:-2222/9999/7777/4444--------
E:----------------------------(x2)

G:----------------------------
D:---------------------------- 
A:-222222222-4444-7777-------
E:----------------------------(x2)

G:----------------------------
D:------------------2~--------   
A:---2~----4~-----------------
E:---------------------------- (x2)

G:------------------------|---------------------------------------------
D:------------------------|--------------------------------------------- 
A:---------------2222-----|----------------2222-2222222222222222--------  
E:-44444444-0000------(x3)|--44444444-0000------------------------------(x1)

G:----------------------------
D:---------------------------- 
A:-2222/9999/7777/4444--------
E:---------------------------- (x2)
[ Tab from: http://www.guitartabs.cc/tabs/b/blink_182/everytime_i_look_for_you_btab_ver_3.html ]
G:----------------------------
D:---------------------------- 
A:-222222222-4444-7777--------
E:----------------------------(x2)

G:----------------------------
D:------------------2~--------   
A:---2~----4~-----------------
E:---------------------------- (x2)

G:------------------------|---------------------------------------------
D:------------------------|---------------------------------------------
A:---------------2222-----|----------------22222222222222222222---------
E:-44444444-0000------(x3)|--44444444-0000------------------------------(x1)

G:--------------------------------------
D:--------------------------------------
A:-22222222/666666/99/7777777777777777--
E:--------------------------------------(x4)

G:--------------------------------------
D:--------------------------------------
A:-22222222/666666/99/77777777/99999999-
E:--------------------------------------(x2)

G:--------------------------|--------------------------
D:--------------------------|-------------------------- 
A:---------------2222-------|----------------2~-------- 
E:-44444444-0000--------(x7)|--44444444-0000-----------(x1)

That's It. Great song to play. e-mail me if you want others or have any suggestions at 
skaters_rule69@hotmail.com
Comments