Blink 182 - Everytime I Look For You Chords & Tabs

 

Everytime I Look For You Chords & Tabs

Blink 182 Chords & Tabs

Version: 2 Type: Bass Tab 0 ratings
1 star 2 stars 3 stars 4 stars 5 stars
comments

Everytime I Look For You Bass Tab

Song: Everytime I Look for You
Band: Blink 182
Tab By: p_predictable_ae@hotmail.com
Instrument: Bass
>= Hold Note

during the first part of the verse (first time)
G-----------
D--------2>-
A--2>-4>----
E-----------

during the first part of the verse (all the other times)
G------------------------------------------------------------------
D--------------------------------------------------2-2-2-2-2-2-2-2-
A--2-2-2-2-2-2-2-2-2-2-2-2-2-2-2-2-4-4-4-4-4-4-4-4-----------------
E------------------------------------------------------------------

during the second part of the verse
G-----------
D--------2>-
A--2>-4>----
E-----------

during the guitar riff
G------------------------------------------------------------------
D------------------4-4-4-4-4-4-4-4-2-2-2-2-2-2-2-2-----------------
A--2-2-2-2-2-2-2-2---------------------------------4-4-4-4-4-4-4-4-
E------------------------------------------------------------------

during the chorus
G------------------------------------------------------------------
D----------------------------------4-4-4-4-4-4-4-4-2-2-2-2-2-2-2-2-
A--2-2-2-2-2-2-2-2-2-2-2-2-2-2-2-2---------------------------------
E------------------------------------------------------------------
[ Tab from: http://www.guitartabs.cc/tabs/b/blink_182/everytime_i_look_for_you_btab_ver_2.html ]
during the first part of bridge when there is no one singing (double time)
G------------------------------------------------------------------
D----------------------------------1-1-1-1-1-1-1-1-1-1-1-1-1-1-1-1-
A--2-2-2-2-2-2-2-2-2-2-2-2-2-2-2-2---------------------------------
E------------------------------------------------------------------

G------------------------------------------------------------------
D--4-4-2-2-2-2-2-2-2-2-2-2-2-2-2-2-2-2-2-2-2-2-2-2-2-2-2-2-2-2-2-2-
A------------------------------------------------------------------
E------------------------------------------------------------------

during the second part of bridge when there is mark singing (double time)
G-------------------------------------------------------------------
D-----------------------------------1-1-1-1-1-1-1-1-1-1-1-1-1-1-1-1-
A--2-2-2-2-2-2-2-2-2-2-2-2-2-2-2-2----------------------------------
E-------------------------------------------------------------------

G------------------------------------------------------------------
D--2-2-2-2-2-2-2-2-2-2-2-2-2-2-2-2-2-2-2-2-2-2-2-2-2-2-2-2-2-2-2-2-
A------------------------------------------------------------------
E------------------------------------------------------------------

That's basically it. The order is easy enough to pick up by listening to the recording. You will also have to listen to the recording for the rythem. Email me if you have any questions.
Comments