Blink 182 - Every Time I Look For You Chords & Tabs

 

Every Time I Look For You Chords & Tabs

Blink 182 Chords & Tabs

Version: 2 Type: Tab 0 ratings
1 star 2 stars 3 stars 4 stars 5 stars
comments

Every Time I Look For You Tab

Blink 182 - Everytime I look for you

Tabbed by Kunst

Notes:Figure out patterns on your own

Intro

e|------------------------------------------------------------------------|
B|------------------------------------------------------------------------|
G|--4---------------------------------------------------------------------|
D|--x-----(a bunch of times)----------------------------------------------|
A|--2---------------------------------------------------------------------|
E|------------------------------------------------------------------------|


Next part

Guitar 1

e|--------------------------------------------------------------------------|
B|--4-4-5-4--4-5-4--4-5-4------4--------------------------------------------|
G|-------------------------4-6----------------------------------------------|
D|--------------------------------------------------------------------------|
A|--------------------------------------------------------------------------|
E|--------------------------------------------------------------------------|   x2

Guitar 2

e|------------------------------------------------------------------------|
B|------------------------------------------------------------------------|
G|--4---------11---------9---------6--------------------------------------|
D|--4---------11---------9---------6--------------------------------------|
A|--2---------9 ---------7---------4--------------------------------------|
E|------------------------------------------------------------------------|


Verse

e|------------------------------------------------------------------------|
B|-----------------4--4---------------------------------------------------|
G|--4-------------4--4----------------------------------------------------|
D|--4------------4--4-----------------------------------------------------|
A|--2-----------2-------x4------------------------------------------------|
E|------------------------------------------------------------------------|


Chorus

e|------------------------------------------------------------------------|
B|------------------------------------------------------------------------|
G|--4---------------------------------------------------------------------|
D|--x-----(a bunch of times)----------------------------------------------|
A|--2---------------------------------------------------------------------|
E|------------------------------------------------------------------------|


Next part

Guitar 1

e|--------------------------------------------------------------------------|
B|--4-4-5-4--4-5-4--4-5-4------4--------------------------------------------|
G|-------------------------4-6----------------------------------------------|
D|--------------------------------------------------------------------------|
A|--------------------------------------------------------------------------|
E|--------------------------------------------------------------------------|   x2

Guitar 2

e|------------------------------------------------------------------------|
B|------------------------------------------------------------------------|
G|--4---------11---------9---------6--------------------------------------|
D|--4---------11---------9---------6--------------------------------------|
A|--2---------9 ---------7---------4--------------------------------------|
E|------------------------------------------------------------------------|


Verse
[ Tab from: http://www.guitartabs.cc/tabs/b/blink_182/every_time_i_look_for_you_tab_ver_2.html ]
e|------------------------------------------------------------------------|
B|-----------------4--4---------------------------------------------------|
G|--4-------------4--4----------------------------------------------------|
D|--4------------4--4-----------------------------------------------------|
A|--2-----------2-------x4------------------------------------------------|
E|------------------------------------------------------------------------|


Chorus

e|------------------------------------------------------------------------|
B|------------------------------------------------------------------------|
G|--4---------------------------------------------------------------------|
D|--x-----(a bunch of times)----------------------------------------------|
A|--2---------------------------------------------------------------------|
E|------------------------------------------------------------------------|


Bridge

e|--------------------------------------------------------------------------|
B|--------------------------------------------------------------------------|
G|--4--------8--------11--9-------------------------------------------------|
D|--x--------x--------x---x-------------------------------------------------|
A|--2--------6--------9 --7-------------------------------------------------|
E|--------------------------------------------------------------------------|   x2

                           ----Pause----

e|--------------------------------------------------------------------------|
B|--------------------------------------------------------------------------|
G|--4--------8--------11--9-------------------------------------------------|
D|--x--------x--------x---x-------------------------------------------------|
A|--2--------6--------9 --7-------------------------------------------------|
E|--------------------------------------------------------------------------|   x2


e|--------------------------------------------------------------------------|
B|--------------------------------------------------------------------------|
G|--4--------8------------9-------------------------------------------------|
D|--x--------x------------x-------------------------------------------------|
A|--2--------6------------7-------------------------------------------------|
E|--------------------------------------------------------------------------|   x2

Chorus

e|-----------------------------------------------------------------------|
B|-----------------------------------------------------------------------|
G|--4--------------------------------------------------------------------|
D|--x-----(a bunch of times)---------------------------------------------|
A|--2--------------------------------------------------------------------|
E|-----------------------------------------------------------------------|

Chorus continued

Guitar 1

e|--------------------------------------------------------------------------|
B|--------------------------------------------------------------------------|
G|--4--------------------------------------4--------------------------------|
D|--x-----(a bunch of times)---------------4--------------------------------|
A|--2--------------------------------------2--------------------------------|
E|--------------------------------------------------------------------------|

Guitar 2

e|-------------------------------------------------------------------------|
B|-------------------------------------------------------------------------|
G|--8----------------------------8----6----4-------------------------------|
D|--x----------------------------x----x----x-------------------------------|
A|--6----------------------------6----4----2-------------------------------|
E|-------------------------------------------------------------------------|
Comments