Blink 182 - Easy Target Chords & Tabs

 

Easy Target Chords & Tabs

Blink 182 Chords & Tabs

Version: 8 Type: Tab 0 ratings
1 star 2 stars 3 stars 4 stars 5 stars
comments

Easy Target Tab

   
Easy Target
Standered Tuning
Three Guitars but two of them arn't really necessary, but
i tabbed it out anyways. The song is relatively easy. If it
takes you more that like say, 5 minutes to get it, well,
um, kill yourself

Intro

Guitar 1


e|------------------------------------------|
B|------------------------------------------|
G|-------------------2-2-2-2----------------|
D|--4-4-4-4-4-4-4-4--2-2-2-2--2--2-2--------| 2x
A|--4-4-4-4-4-4-4-4--0-0-0-0--2--2-2--------|
E|--2-2-2-2-2-2-2-2-----------0--0-0--------|

Guitar 2

e|---------------------------------------------------|
B|---------------------------------------------------|
G|---------------------------------------------------|
D|11-11-11-11-11-11-11-11-11--14-14-14-14------------| 2x
A|-x--x--x--x--x--x--x--x--x---x--x--x--x------------|
E|-9--9--9--9--9--9--9--9--9--12-12-12-12------------|


Verse


Guitar 1

e|-----------------------------------------------------------|
B|-----------------------------------------------------------|
G|-----------------------------------------------------------|
D|11-11-11-11-11-11-11-11-11-11-11-11-11-9-9-9-11-11-11-7----| 4x
A|-x--x--x--x--x--x--x--x--x--x--x--x--x-x-x-x--x--x--x-x----|
E|-9--9--9--9--9--9--9--9--9--9--9--9--9-7-7-7--9--9--9-5----|

Chours
During this part, have guitars 1 and 2 playing the intro 4 times


e|---------------------------------------------------|
B|---------------------------------------------------|
G|---------------------------------------------------|
D|11-11-11-11-11-11-11-11-11-14-14-14-14-9-9-9-9-----| 4x
A|-x--x--x--x--x--x--x--x--x--x--x--x--x-x-x-x-x-----|
E|-9--9--9--9--9--9--9--9--9-12-12-12-12-7-7-7-7-----|


Have guitar 1 play this chord as the second verse starts

E|---|
B|---|
G|---|
D|-7-|
A|-x-|
E|-5-|

Verse

Guitar 1
(im hoping your smart enough to know where to play
this part)
[ Tab from: http://www.guitartabs.cc/tabs/b/blink_182/easy_target_tab_ver_8.html ]
e|----------------------------------|
B|----------------------------------|
G|----------------------------------|
D|-9--/11--/7-----------------------|
A|-x----x---x-----------------------|
E|-7--/-9--/5--5p0------------------|

Play this part twice, the second time DONT do the pull-off

Now play the chours again, with all 3 guitar parts

Bridge

Guitar 1


e|------------------------------------|
B|------------------------------------|
G|---7-7-7-7-7-7-7-7------------------|
D|---7-7-7-7-7-7-7-7-7-7-7-7-2-2-2-2--| 3x
A|---5-5-5-5-5-5-5-5-7-7-7-7-2-2-2-2--|
E|-------------------5-5-5-5-0-0-0-0--|

Guitar 2

e|---------------------------------------------------|
B|---------------------------------------------------|
G|---------------------------------------------------|
D|12-12-12-12-12-12-12-12-14-14-14-14-14-14-14-14-14-| 3x
A|-x--x--x--x--x--x--x--x--x--x--x--x--x--x--x--x--x-|
E|10-10-10-10-10-10-10-10-12-12-12-12-12-12-12-12-12-|

Now play these two parts to finish up the bridge

Guitar 1

e|---------------------------------0--|
B|---------------------------------0--|
G|---7-7-7-7-7-7-7-7-6-6-6-6-6-6-6-1--|
D|---7-7-7-7-7-7-7-7-6-6-6-6-6-6-6-2--| 1x
A|---5-5-5-5-5-5-5-5-4-4-4-4-4-4-4-2--|
E|---------------------------------0--|

Guitar 2

e|---------------------------------------------------|
B|---------------------------------------------------|
G|---------------------------------------------------|
D|12-12-12-12-12-12-12-12-11-11-11-11-11-11-11-11-11-| 1x
A|-x--x--x--x--x--x--x--x--x--x--x--x--x--x--x--x--x-|
E|10-10-10-10-10-10-10-10--9--9--9--9--9--9--9--9--9-|

Outro

Guitar 1

e|----------------------------------|
B|----------------------------------|
G|----------------------------------|
D|-4/6/7/9/7--7/9/11--11-12/9--9/---| 9x
A|-x-x-x-x-x--x-x--x---x--x-x--x----|
E|-2/4/5/7/5--5/7/-9---9/10/7--7/---|

After about 5 times, slow it down, after about 7 times
he uses a delay and some studio effects.
Done
Comments