Blink 182 - Easy Target Chords & Tabs

 

Easy Target Chords & Tabs

Blink 182 Chords & Tabs

Version: 3 Type: Tab 0 ratings
1 star 2 stars 3 stars 4 stars 5 stars
comments

Easy Target Tab

Hey everyone! I notice that the last time I checked this site that nobody tabbed
this new blink song that is unreleased and also is amazing! This song took me 5
minutes to learn by ear so it is really easy. and when I play along with the song
it sounds 100% right, but if there are any corrections then juss leave a note.
here it goes!
~: let ring

Intro
e ------------------------------------------------
B ------------------------------------------------
G ------------------------------------------------  X4
D -4-----7-7-7--2--2-2-2--------------------------
A -4-X8--7-7-7--2--2-2-2--------------------------
E -2-----5-5-5--0--0-0-0--------------------------

Verse 1
e ------------------------------------------------
B ------------------------------------------------
G -6------4-4-4--6-6-6----------------------------
D ---X16---------------2~-------------------------  X4
A -4------2-2-2--4-4-4-0~-------------------------
E ------------------------------------------------
[ Tab from: http://www.guitartabs.cc/tabs/b/blink_182/easy_target_tab_ver_3.html ]
Chorus 1
e ------------------------------------------------
B ------------------------------------------------
G ------------------------------------------------
D -4----7----2---------end on--7~-----------------  X4
A -4-X8-7-X4-2-X4--------------7~-----------------
E -2----5----0-----------------5~-----------------
-----
Verse 2
(bass plays and then at 1:06 the guitar comes in with this)
e ------------------------------------------------
B ------------------------------------------------
G -6~--4-6----------------------------------------
D ---------2--------------------------------------
A -4~--2-4-0--------------------------------------
E ------------------------------------------------

Chorus 2
e ------------------------------------------------
B ------------------------------------------------
G ------------------------------------------------
D -4----7----2------------------------------------  X4
A -4-X8-7-X4-2-X4---------------------------------
E -2----5----0------------------------------------

Interlude                     X3 -|
e --------------------------------|---------------
B --------------------------------|---------------
G -7-7-7-7-7-7-7-7----------------|-7----6--------
D -7-7-7-7-7-7-7-7-7-7-7-7-2-2-2-2|-7-X8-6-X8-----  
A -5-5-5-5-5-5-5-5-7-7-7-7-2-2-2-2|-5----4--------
E -----------------5-5-5-5-0-0-0-0|---------------

Outro
e ------------------------------------------------
B ------------------------------------------------
G ------------------------------------------------
D -4/6/7/9\7--7/9/11-11/12\9-9---------------------
A ------------------------------------------------
E -2/4/5/7\5--5/7/9--9\10/7--7---------------------
Play Outro until the song is done and gradually get slower each time through

There you have it! Easy Target by blink -182! have fun with this song and again
if there are any mistakes then just leave a note! L8eR dAyZ!
Comments