Blink 182 - Easy Target Chords & Tabs

 

Easy Target Chords & Tabs

Blink 182 Chords & Tabs

Version: 2 Type: Tab 0 ratings
1 star 2 stars 3 stars 4 stars 5 stars
comments

Easy Target Tab

   
This is my first tab and it pretty much sounds right.

Blink 182 - Easy Target (Blink 182, 2003)

Intro:
e|--------------------------------|
B|--------------------------------|
G|----------------2-2-2-2---------|
D|4-4-4-4-4-4-4-4-2-2-2-2-2-2-2-2-|
A|4-4-4-4-4-4-4-4-0-0-0-0-2-2-2-2-|
E|2-2-2-2-2-2-2-2---------0-0-0-0-|
[ Tab from: http://www.guitartabs.cc/tabs/b/blink_182/easy_target_tab_ver_2.html ]
Verse:
e|------------------------------------------------------------|
B|------------------------------------------------------------|
G|7-7-7-7-7-7-7-7-7-7-7-7-7-7-7-7-4-4-4-7-7-7-----------------|
D|x-x-x-x-x-x-x-x-x-x-x-x-x-x-x-x-x-x-x-x-x-x-7-7-7-7-7-7-7-7-|
A|5-5-5-5-5-5-5-5-5-5-5-5-5-5-5-5-2-2-2-5-5-5-x-x-x-x-x-x-x-x-|
E|--------------------------------------------5-5-5-5-5-5-5-5-|

Thats pretty much the whole song right there just repeat a bunch.
Any questions, complaints, corrections: ghostrider141@hotmail.com.
-|Tommy Gun|-
Comments