Blink 182 - Easy Target Chords & Tabs

 

Easy Target Chords & Tabs

Blink 182 Chords & Tabs

Version: 1 Type: Tab 1 rating
1 star 2 stars 3 stars 4 stars 5 stars
comments

Easy Target Tab

Easy Target
~ hold 

E|--------------------------------------------------|
B|--------------------------------------------------|
G|--------------------------------------------------|
D|-4-~---------7-~--------2-~-----------------------|
A|-4-----------7----------2-------------------------|
E|-2-----------5----------0-------------------------| X4 
Verse

E|------------------------------------------------------|
B|------------------------------------------------------|
G|--6---------4-4-4------6-6-6--------------------------|
D|--6---------4-4-4------6-6-6--7-----------------------|
A|--4-X16-----2-2-2------4-4-4--7-----------------------|
E|------------------------------5~----------------------| X4 
Chorus
[ Tab from: http://www.guitartabs.cc/tabs/b/blink_182/easy_target_tab.html ]
E|--------------------------------------------------|
B|--------------------------------------------------|
G|--------------------------------------------------|
D|-4-~---------7-~--------2-~-----------------------|
A|-4-----------7----------2-------------------------| 
E|-2-----------5----------0-------------------------| X4 
During The Run Run Thingy

E|--------------------------------------------------|
B|--------------------------------------------------|
G|-7-~----------------------------------------------|
D|-7----7-~-----------------------------------------|
A|-5----7-------------------------------------------|
E|------5-------------------------------------------| 

Ending

E|--------------------------------------------------|
B|--------------------------------------------------|
G|--------------------------------------------------|
D|--------------------------------------------------|
A|-----0-2-0--0-2-4-4-5-2-2-4-----------------------|
E|-2-4----------------------------------------------| X12


Comments