Blink 182 - Easy Target Chords & Tabs

 

Easy Target Chords & Tabs

Blink 182 Chords & Tabs

Version: 3 Type: Bass Tab 0 ratings
1 star 2 stars 3 stars 4 stars 5 stars
comments

Easy Target Bass Tab

from Blink 182
Easy Target
Words and Music by Travis Barker, Tom De Longe and Mark Hoppus
Fast Rock = 160bpm



(Drum Intro-4 Bars)

Intro
|-----------------|-----------------|
|-----------------|-----------------|
|-----------------|-0-0-0-0---------|
|-2-2-2-2-2-2-2-2-|---------0---0-0-|

Verse
|-----------------|-----------------|
|-----------------|-----------------|
|-4-4-4-4-4-4-4-4-|-4-4-4-4-4-4-4-4-|
|-----------------|-----------------|

|-----------------|-----------------|
|-----------------|-----------------|
|-2-2-2-4-4-4-0~~-|~~~~~~~~~~~~~~~~~|
|-----------------|-----------------|

Chorus
|-----------------|-----------------|
|-----------------|-----------------|
|-----------------|-0-0-0-0---------|
|-2-2-2-2-2-2-2-2-|---------0---0-0-|
[ Tab from: http://www.guitartabs.cc/tabs/b/blink_182/easy_target_btab_ver_3.html ]
Verse 2
|-----------------|-----------------|
|-----------------|-----------------|
|-4-4-4-4-4-4-4-4-|-4-4-4-4-4-4-4-4-|
|-----------------|-----------------|

|-----------------|-----------------|
|-----------------|-----------------|
|-2-2-2-4-4-4-0-0-|-0-0-0-0-0-0-0-0-|
|-----------------|-----------------|

Bridge 1
|-----------------|-----------------|
|-----------------|-----------------|
|-5-5-5-5-5-5-5-5-|-7-7-7-7-7-7-7-7-|
|-----------------|-----------------|

Bridge 2
|-----------------|-----------------|
|-----------------|-----------------|
|-5-5-5-5-5-5-5-5-|-4-4-4-4-4-4-4-4-|
|-----------------|-----------------|

Outro
|-----------------|-------------------|
|-----------------|-------------------|
|-----------------|-------------------|
|-2~~~~~~~~~~~~~~~|~~~~~~~~~~~~~~~~~~~|



Intro  x4
Verse 1  x4
Chorus  x4
Verse 1  x2
Verse 2  x2
Chorus  x4
Bridge 1  x3
Bridge 2
Intro  x3
Outro
Comments