Blink 182 - Easy Target Chords & Tabs

 

Easy Target Chords & Tabs

Blink 182 Chords & Tabs

Version: 2 Type: Bass Tab 0 ratings
1 star 2 stars 3 stars 4 stars 5 stars
comments

Easy Target Bass Tab

intro:
G|------------------------|
D|------------------------|
A|----------0000----------|
E|222222------0000--------|

verse:
G|---------------------------------------|
D|---------------------------------------|
A|------------0--------222-444-5555555---|
E|2222-0-2--4-0--------------------------|
[ Tab from: http://www.guitartabs.cc/tabs/b/blink_182/easy_target_btab_ver_2.html ]
chorus:
G|---------------------------------------|
D|---------------------------------------|
A|---------0000--------------------------|
E|22222-------0000-----------------------|

verse (x1)
chorus(x1)
outro:
G|---------------------------------------|
D|0000-----------------------------------|
A|-------00------------------------------|
E|----------00---------------------------|
better run run run run run....

G|---------------------------------------|
D|---------------------------------------|
A|---------------------------------------|
E|2/3/5/7/5-5/7/9-9/10/7-7/5-------------|
Comments