Blink 182 - Dysentery Gary Chords & Tabs

 

Dysentery Gary Chords & Tabs

Blink 182 Chords & Tabs

Version: 8 Type: Tab 0 ratings
1 star 2 stars 3 stars 4 stars 5 stars
comments

Dysentery Gary Tab

  No one can beat tom delonge!
 
 the song has 2 guitars but, do whut ever u want.
 Standard tunning
\= Slide
~ = let ring
x = muted


Intro::(listen for exact picking)
first guitar 
e---------------------------|
B---------------------------|
G---------------------------|
D----4-0-5-4-0---4----------|( 4x)
A--------------------0-5----|
E----------------3----------|
second guitar (comes in after first guitar plays intro once)
e-----------------------------------------------------|
B-----------------------------------------------------|
G--7-----------------------7--------------------------| (x2)
D--7~-< only play 1st time-5-(x16)--5-------7---------|
A--5-----------------------5--------5-(x7)--7--(x7)---|
E-----------------------------------3-------5---------|

[ Tab from: http://www.guitartabs.cc/tabs/b/blink_182/dysentery_gary_tab_ver_8.html ]
verse::			(1 guitar)
{Got a lot of heartache...}
e--------------------------------------------|
B--------------------------------------------|
G--7-x-x-x7--7-x-x-x7------------------------|
D--7-x-x-x7~-7-x-x-x7~-5-x-x-x5--7-x-x-x7-7--|  (x2)
A--5-x-x-x5--5-x-x-x5--5-x-x-x5~-7-x-x-x7-7--|
E----------------------3-x-x-x3--5-x-x-x5-5--|



chorus::		(1 guitar)
{He's a player,....}
e-------------------------------|
B-------------------------------|
G--7----------------------------| (x1)
D--7--(x20)-5-------7-----------|
A--5--------5-(x10)-7--(x10)----|
E-----------3-------5-----------|


2nd chorus::  (1 guitar)
{Life just sucks....}
e-15--14-----------------------|
B---------14/--8-8-8-----------|
G------------------------------|  (x6)
D------------------------------|
A------------------------------|
E------------------------------|

end on::
e---------|
B---------|
G--7------|
D--7------|
A--5------|
E---------|


intro x4 
verse x2
chorus x1
2nd chorus x6
intro x2 
verse x2
break no guitar
chorus x1
2nd chorus x6
interlude 
2nd chorus x6, w\ chorus x2
intro x1 
end on x1
Any corrections, questions,comments or updates email
me (ilovejake11@gyllenhaal.zzn.com ::or:: star0049@aol.com)
Comments