Blink 182 - Dysentery Gary Chords & Tabs

 

Dysentery Gary Chords & Tabs

Blink 182 Chords & Tabs

Version: 7 Type: Tab 0 ratings
1 star 2 stars 3 stars 4 stars 5 stars
comments

Dysentery Gary Tab

Title: Dysentery Gary
Album: Enema of the State
Band: Blink 182

I hope its right cause there aren’t any right tabs on this site about this song, 
or there not entirely right…so here goes.


Intro (x4)

Guitar 1
e-----------------------------------------
B-----------------------------------------
G-----------------------------------------
D---444-000-555-444-000------444----------
A--------------------------------000-444--
E-----------------------333---------------


Guitar 2
       x1                        x2
e----------||-------------------------------------------
B----------||-------------------------------------------
G----7~~---||-----777777777777777-----------------------
D----7~~---||-----777777777777777--555555555--77777777--
A----5~~---||-----555555555555555--555555555--77777777--
E----------||----------------------333333333--55555555--
At the end of first   Then this on the third time.
time of the intro.


Verse (x2)

e----------------------------------------------
B----------------------------------------------
G--7-xxxx-7--7-xxxx-7--------------------------
D--7-xxxx-7--7-xxxx-7--5-xxxx-5--7-xx-7-xx-77--
A--5-xxxx-5--5-xxxx-5--5-xxxx-5--7-xx-7-xx-77--
E----------------------3-xxxx-3--5-xx-5-xx-55--

Little solo or pre-pre-chorus if u want (x1 the first time, then x2 the second time)
[ Tab from: http://www.guitartabs.cc/tabs/b/blink_182/dysentery_gary_tab_ver_7.html ]
e----------------------------------
B----------------------------------
G--7-7-7-7-7-7-7-7-7-7-7-7-6-6-6-6-
D----------------------------------
A----------------------------------
E----------------------------------


Pre-chorus (x1)

e---------------------------------
B---------------------------------
G--777777777777-------------------
D--777777777777-5555555--7777777--
A--555555555555-5555555--7777777--
E---------------3333333--5555555--

Chorus (x6)

e----15-14------------------
B------------15-------------
G-----------------12-12-12--
D---------------------------
A---------------------------
E---------------------------

Interlude (x1)

e-------------------------------------------------------
B-------------------------------------------------------
G---------------------------------------------------7~~-
D---5--4-----0-----5--4-----4----5--4-----0---5--4--7~~-
A-5------4-------5------4------5------4-----5-------5~~-
E----------5--------------5-------------5---------------

Outro (x1, guitar 1,)        (then both guitars end on this)

e-------------------------------------|-----|
B-------------------------------------|-----|
G-------------------------------------|--7--|
D-444-000-555-444-000-----444---------|--7--|
A-----------------------------000-444-|--5--|
E---------------------333-------------|-----|


Song order:

Intro
Verse
Pre-pre-chorus
Pre-chorus
Chorus
Interlude
Chorus
Outro
Comments