Blink 182 - Dysentery Gary Chords & Tabs

 

Dysentery Gary Chords & Tabs

Blink 182 Chords & Tabs

Version: 2 Type: Tab 0 ratings
1 star 2 stars 3 stars 4 stars 5 stars
comments

Dysentery Gary Tab

   
-=-=-=-=-=-=-=-=-=-=-=-=-=-=-=-=-=-=-=
Blink 182
Dysentery Gary
Enema Of The State
Tabbed By Leandro Koren                    
leandro_koren@yahoo.com.ar
-=-=-=-=-=-=-=-=-=-=-=-=-=-=-=-=-=-=-=

Intro:

E||---------------------------------------------------------||
B||---------------------------------------------------------||
G||---------------------------------------------------------||
D||--4-4-4-0-0-0-5-5-5--4-4-0---------4-4-4-----------------||
A||------------------------------------------------4-4-4h5--||
e||-----------------------------3-3-3--------5-5-5----------|| X 2

Verse:

     D5     G5     A5     G5
     pm...  pm...  pm...  pm...
E||------------------------------||
B||------------------------------||
G||--7-777---------2-222---------||
D||--7-777--5-555--2-222--5-555--||
A||--5-555--5-555--0-000--5-555--||
e||---------3-333---------3-333--||

Break:

E||-------------------------------------||
B||-------------------------------------||
G||-------------------------------------||
D||-------------------------------------||
A||--5-5-5-5-5-5-5-5-5---9-7--10-10-10--||
e||-------------------------------------||

Break II:

E||---------------------------------|
B||---------------------------------|
G||---------------------------------|
D||---------------------------------|
A||--9/10-9--7---5---9/10-9--7------|
e||------------5---------------5-7--|

E|------------------------------||
B|------------------------------||
G|------------------------------||
D|------------------------------||
A|--9/10-9--7---5---9/10-9---5--||
e|------------5-----------------||

Chorus:
[ Tab from: http://www.guitartabs.cc/tabs/b/blink_182/dysentery_gary_tab_ver_2.html ]
E||---------------------------------||
B||---------------------------------||
G||--77777777-----------------------||
D||--77777777--55555555--777777777--||
A||--55555555--55555555--777777777--||
e||------------33333333--555555555--||

During Second part of chorus:

E||---------------||
B||---------------||
G||--7-6----------||
D||------7--------||
A||--------5-5-5--||
e||---------------||

Lyrics:

Intro X 4

Verses:

Got a lotta heart ache
He's a fuckin' weasel
His issues make my mind ache
Wanna make a deal

'Cause I love your little motions
You do with your pigtails
What a nice creation
Worth another night in jail

Break X 1

He's a player, diarrhea giver
Tried to grow his hair out, friends were listening to Slayer
I'd like to find him Friday night
Hanging out with mom, trying on his father's tights

Chorus:

Life just sucks, I lost the one
I'm giving up, she found someone
There's plenty more
Girls are such a drag

Intro X 2

Verses:

So all you little ladies
Be sure to choose the right guys
You'll come back to me maybe
I'll shower you with lies

Got a lotta heart ache
He's a fuckin' weasel
Decisions make my mind ache
Wanna make a deal

Break X 1 and over the bridge.

Bridge:

Ease away the problems and the pain
The girl chose the guy that makes you wanna kick and scream
All along, you wish that she would stay
Fuck the guy that took and ran away, yeah

Verse:

He's a player, diarrhea giver
Tried to grow his hair out, friends were listening to Slayer
I'd like to find him Friday night
Hanging out with mom and trying on his father's tights

Chorus:

Life just sucks, I lost the one
I'm giving up, she found someone
There's plenty more
Girls are such a drag

Break II X 1.

Chorus:

Fuck this place, I lost the war
I hate you all, your mom's a whore
Where's my dog?
'Cause girls are such a drag

Intro and End On D5.

-=-=-=-=-=-=-=-=-=-=-=-=-=-=-=-=-=-=-=-=-=-=-=-=-=-=-=-=-=-=-=-=-=-=-=-=-=-=
Any question mail me:
leandro_koren@yahoo.com.ar
-=-=-=-=-=-=-=-=-=-=-=-=-=-=-=-=-=-=-=-=-=-=-=-=-=-=-=-=-=-=-=-=-=-=-=-=-=-=
Comments