Blink 182 - Dysentery Gary Chords & Tabs

 

Dysentery Gary Chords & Tabs

Blink 182 Chords & Tabs

Version: 1 Type: Tab 0 ratings
1 star 2 stars 3 stars 4 stars 5 stars
comments

Dysentery Gary Tab

Blink 182, Dysentery Gary.
Tabbed by Brad, arc_angel999@hotmail.com.
  
Intro
E----------------------------------------------------------------------------------------------------------
B----------------------------------------------------------------------------------------------------------
G---------------------------------------------------------------------------------------------------------
D-444—000—555—44—0000----------444-------------------------------------------------------
A---------------------------------------------------000—555------------------------------------------
E---------------------------------------333--------------------------------------------------------------
                                                                                   This is the intro   Repeat this twice
Chorus
E--------------------------------------------------------------------
B--------------------------------------------------------------------
G----7-7-7-7-7-7-7-7---------------------------------------------
D----7-7-7-7-7-7-7-7----5-5-5-5----7-7-7-7-------------------  This is most of the distortion  
A----5-5-5-5-5-5-5-5----5-5-5-5----7-7-7-7-------------------   parts in the middle when it                                      
E--------------------------3-3-3-3----5-5-5-5--------------------   says “He’s a player…”

Chorus2
E------------------------------------------------------------------------
B------------------------------------------------------------------------
G----7-x-x-x-7----7-x-x-x-7-----------------------------------------  This is for the part when it 
D----7-x-x-x-7----7-x-x-x-7----5-x-x-x-5----7-x-x-x-7-x-x-7-7  says “Gotta lotta 
A----5-x-x-x-5----5-x-x-x-5----5-x-x-x-5----7-x-x-x-7-x-x-7-7  heartache… He’s a fu*kin
E-----------------------------------3-x-x-x-3----5-x-x-x-5-x-x-5-5   weasel.” listen to see how 
                                                                                                     many times to play it

Bridge
E-----15-14---------------------------
B-------------14/8-8-8---------------
G--------------------------------------  This is when it says “Life just sucks”
D--------------------------------------  play 6 times when you hear it.
A_--------------------------------------
E---------------------------------------



That’s just about it----------------------
 
:: Ultimate Guitar Archive :: 
http://www.ultimate-guitar.com 


[ Tab from: http://www.guitartabs.cc/tabs/b/blink_182/dysentery_gary_tab.html ]
Comments