Blink 182 - Dysentary Gary Chords & Tabs

 

Dysentary Gary Chords & Tabs

Blink 182 Chords & Tabs

Version: 7 Type: Tab 0 ratings
1 star 2 stars 3 stars 4 stars 5 stars
comments

Dysentary Gary Tab

   
DYSENTARY GARY BY BLINK182
tabed by blinkfan182
======================================

intro:

e|-------------------------------------------------------------|
b|-------------------------------------------------------------|
g|-------------------------------------------------------------|
d|--4----5---4-------------4-----------------------------------|
a|-----5----------5------------------4h5-----------------------|
e|----------------------3---------5----------------------------|


VERSE:      D5      G5      A5       G5

PART RIGHT AFTER  VERSE:

E|-------------------------------------------------------------|
B|-------------------------------------------------------------|
G|--7-<-those-notes--------6-----------------------------------|
D|--7-<-are harmonic-------------7-----------------------------|
A|---------------------------5---------------------------------|
E|-------------------------------------------------------------|
[ Tab from: http://www.guitartabs.cc/tabs/b/blink_182/dysentary_gary_tab_ver_7.html ]
chorus:     D5    G5     A5

2ND PART OF CHORUS:

e|---------------------------------------------------|
b|---------------------------------------------------|
g|--5-------7----------------------------------------|
d|-----5-------777-----------------------------------|
a|---------------------------------------------------|
e|---------------------------------------------------|

^reapeat all that

bridge:

e|---------------------------------------------------|
b|---------------------------------------------------|
g|---------------------------------------------------|
d|--4-5-------5--4-----------------------------------|
a|-------5--5----------------------------------------|
e|---------------------------------------------------|

^do that a few times

2ND  PART OF THE CHORUS  AFEW TIMES

INTRO

NOTE:in the intro all the notes are nit afew times each f you listen to
the song you will figure it out.also that goes for the part right after
the verse w/ the last three notes of it.ENJOY!
Comments