Blink 182 - Dysentary Gary Chords & Tabs

 

Dysentary Gary Chords & Tabs

Blink 182 Chords & Tabs

Version: 2 Type: Tab 0 ratings
1 star 2 stars 3 stars 4 stars 5 stars
comments

Dysentary Gary Tab

Band: Blink 182
Song: Dysentery Gary      
Album: Enema Of The State
Transcribed by: Derrik Engel (derrik@blink182.zzn.com)

Intro:(listen for exact picking)
e---------------------------|
B---------------------------|
G---------------------------|
D----4-0-5-4-0---4----------| 4x
A------------------0-5------|
E--------------3------------|
 
then..
[ Tab from: http://www.guitartabs.cc/tabs/b/blink_182/dysentary_gary_tab_ver_2.html ]
Got a lot of heartache...
e--------------------------------------|
B--------------------------------------|
G--7-x-x-7--7-x-x-7--------------------|
D--7-x-x-7--7-x-x-7--5-x-x-5--7-x-x-7--|
A--5-x-x-5--5-x-x-5--5-x-x-5--7-x-x-7--|
E--------------------3-x-x-3--5-x-x-5--|

He's a player,....
e--------------------------|
B--------------------------|
G--7--7--7--7--------------|
D--7--7--7--7--5--5--7--7--|
A--5--5--5--5--5--5--7--7--|
E--------------3--3--5--5--|

Life just sucks....
e-15--14------------------------|
B---------14/--8-8-8------------|
G-------------------------------|
D-------------------------------|
A-------------------------------|
E-------------------------------|
/=slide


that is pretty much it, except for the little interlude thingy arourd
2:10, could someone please tab that. Have fun!

Any corrections, questions, or updates email me (derrik@blink182.zzn.com)
Comments