Blink 182 - Dysentary Gary Chords & Tabs

 

Dysentary Gary Chords & Tabs

Blink 182 Chords & Tabs

Version: 1 Type: Tab 1 rating
1 star 2 stars 3 stars 4 stars 5 stars
comments

Dysentary Gary Tab

   
Band-Blink 182
Song-Dysentary Gary
CD-Enema of the State
Tabbed by-Josh W (and a friend)

Intro:
[ Tab from: http://www.guitartabs.cc/tabs/b/blink_182/dysentary_gary_tab.html ]
e--------------------------------
B--------------------------------
G--------------------------------
D-4---5-4----4-------------------
A---5-----5------4-4-4h-5--------
E-----------3--5-----------------

Verse:

D-G-A-G

e------------
B------------
G-7---6------
D-7----------
A---5---7----
E------------

Chorus:

D-G-A

Harmonic:

e---------------
B---------------
G-5---7---------
D---5---7-7-7---
A---------------
E---------------
Comments