Blink 182 - Dumpweed Chords & Tabs

 

Dumpweed Chords & Tabs

Blink 182 Chords & Tabs

Version: 7 Type: Tab 0 ratings
1 star 2 stars 3 stars 4 stars 5 stars
comments

Dumpweed Tab

-------------------------------------------------------------------------------
Dumpweed – BLINK 182
-------------------------------------------------------------------------------
Song: DUMPWEED
Album: ENEMA OF THE STATE
Tabbed by: FUNKEY MUNKEY

Key:
** = Palm Mute
~~ = Let Ring
XX = Left Hand Damping
<< = Pick Slide
b = Bend String
h = Hammer On
p = Pull Off

This song is one of my favorites of the enama of the state album so I thought
I’d take the time out to tab it out and I’ll sonn put all of them off this
album as I keep seeing people tabbing the wrong tabs for songs on this album 
This tab is 99% correct and I’llprobably make a few mistakes but hey! L
ife’s a bitch!! 

Dumpweed

INTRO RIFF 1!
e|------------------------------------------------------------------------|
B|------------------------------------------------------------------------|
G|------------------------------------------------------------------------|
D|---6-6h7p6------------6-6h7p6----------6-6h7p6------------6-6h7p6-9-----|
A|---------------9-7----------------9--0-------------9-7--0-----------9---|
E|-0---------7-5------0---------7-5--------------7-5--------------------7-|

INTRO RIFF 2!
e|-4-0---4-0---2-0---2-0---4-0---4-0---5-0---5-0----|
B|-----0-----0-----0-----0-----0-----0-----0-----0--|
G|--------------------------------------------------| 
D|--------------------------------------------------|
A|--------------------------------------------------|
E|--------------------------------------------------|
[ Tab from: http://www.guitartabs.cc/tabs/b/blink_182/dumpweed_tab_ver_7.html ]
VERSE!
e|------------------------------------------------------------|
B|------------------------------------------------------------|
G|---------444444--------444444--2-22222-444444-222222-444444-| 
D|-2-22222-444444-222222-444444--2-22222-444444-222222-444444-|
A|-2-22222-222222-222222-222222--0-00000-222222-000000-222222-|
E|-0-00000--------000000--------------------------------------|
     ***** ****** ****** ******    ***** ****** ****** ******

CHORUS!
e|----------------------------------------------------------------------|
B|----------------------------------------------------------------------|
G|----------44444444----------44444444----------44444444---------4----4-|
D|-22222222-44444444-77777777-44444444-22222222-44444444-7777777-4----4-|
A|-22222222-22222222-77777777-22222222-22222222-22222222-7777777-2----2-|
E|-00000000----------55555555----------00000000----------5555555--------|

INTERLUDE!
e|-----------------------------------------------------------------------|
B|-----------------------------------------------------------------------|
G|---------44444444----------4444444-2222222-44444444-22222222-44444444--|
D|-2222222-44444444-22222222-4444444-2222222-44444444-22222222-44444444--|
A|-2222222-22222222-22222222-2222222-0000000-22222222-00000000-22222222--|
E|-0000000----------00000000---------------------------------------------|
   ******* ******** ******** ******* ******* ******** ******** ********
SOLO THINGY!
e|-4-0---0---2-0---0---4-0---0---5-0---0-2--|
B|-----0---0-----0---0-----0---0-----0------|
G|------------------------------------------|
D|------------------------------------------|
A|------------------------------------------|
E|------------------------------------------|
* * * * * * * * * * * * * * * * * * * *

INTRO 1 x1
INTRO 2 x2
VERSE x2
INTRO 1 x1
CHORUS x1
INTRO 2 x2
VERSE x1
INTRO 1 x1
CHORUS x2
INTERLUDE x2
SOLO THINGY x4


===============================================================================
Comments