Blink 182 - Dumpweed Chords & Tabs

 

Dumpweed Chords & Tabs

Blink 182 Chords & Tabs

Version: 6 Type: Tab 0 ratings
1 star 2 stars 3 stars 4 stars 5 stars
comments

Dumpweed Tab

This song was tabbed by: Blinker27
E-Mail me at BLinkeR 37@aol.com

here is a very good sounding version of dumpweed by blink182


Intro part 1
-----------------------------------------------------------
-----------------------------------------------------------
---1-1-2-1---------------1-1-2-1------------1-1-2-1--------
-2--------------4------2-------------4----2-------------4--
-2----------2-0---0----2---------2-0------2---------2-0---0
-----------------------------------------------------------



-------------------
-------------------
----1-1-2-1---4----
--2-------------2-4
--2----------------
-------------------

[ Tab from: http://www.guitartabs.cc/tabs/b/blink_182/dumpweed_tab_ver_6.html ]
Intro part 2  play this real fast... actually, on the 2, 4, and 5 pull off!
-4-0---0----4-0---0----2-0---0---2-0---0---4-0---0----4-0---0
-----0----------0----------0---------0---------0----------0--
-------------------------------------------------------------
-------------------------------------------------------------
-------------------------------------------------------------
-------------------------------------------------------------


--5-0---0---5-0---0
------0---------0--
-------------------
-------------------
-------------------
-------------------


this is all i know... have fun with the almost perfect if not perfect intro!


BLINKER27
Comments