Blink 182 - Dumpweed Chords & Tabs

 

Dumpweed Chords & Tabs

Blink 182 Chords & Tabs

Version: 5 Type: Tab 0 ratings
1 star 2 stars 3 stars 4 stars 5 stars
comments

Dumpweed Tab

here's the intro................

standard tuning
[ Tab from: http://www.guitartabs.cc/tabs/b/blink_182/dumpweed_tab_ver_5.html ]
E-----------------------------------------------------------
B-----------------------------------------------------------
G-----------------------------------------------------------
D---6-6h7-6--------6-6h7-6-------6-6h7-6--------6-6h7-6-9---
A-----------0-9-0----------0-9--0--------0-9-0-0---------0-9
E--0-------7------0-------7-------------7-------------------
on this part you pull the string off the bottom of the neck to get the right note
E--4-0-4-0-2-0-2-0-4-0-4-0-5-0-5-0-|
B-----0---0---0---0---0---0---0---0|
G----------------------------------|
D----------------------------------|
A----------------------------------|
E----------------------------------|

any questions,comments,corrections, or anything else email me at zachzeller@earthlink.net
Comments