Blink 182 - Dumpweed Chords & Tabs

 

Dumpweed Chords & Tabs

Blink 182 Chords & Tabs

Version: 4 Type: Tab 0 ratings
1 star 2 stars 3 stars 4 stars 5 stars
comments

Dumpweed Tab

   
-=-=-=-=-=-=-=-=-=-=-=-=-=-=-=-=-=-=-=
Blink 182
Dumpweed
Enema Of The State
Tabbed By Leandro Koren                    
leandro_koren@yahoo.com.ar
-=-=-=-=-=-=-=-=-=-=-=-=-=-=-=-=-=-=-=

Intro:

E||-----------------------------------|
B||-----------------------------------|
G||-----------------------------------|
D||-----6h7p6-----4----6-6h7p6-----4--|
A||-----------------------------------|
e||--0--------7-5--0--0--------7-5----|

E||-----------------------------------------|
B||-----------------------------------------|
G||-----------------------------------------|
D||------6-6h7p6-----4------6-6h7p6--9------|
A||--0-------------------0-------------0-9--|
e||--------------7-5---0--------------------|


E||-----------------------------------------------------||
B||--9h7-0-9h7-0-7h5-0-7h5-0-9h7-0-9h7-0-10h9-0-10h9-0--||
G||-----------------------------------------------------||
D||-----------------------------------------------------||
A||-----------------------------------------------------||
e||-----------------------------------------------------||

Verse:

     E5         B5     E5       B5      A5       B5    A5
   Pm.........................................................
E||-------------------------------------------------------------||
B||-------------------------------------------------------------||
G||-------------44444------------44444--2222222--44444--222222--||
D||--222222222--44444--22222222--44444--2222222--44444--222222--||
A||--222222222--22222--22222222--22222--0000000--22222--000000--||
E||--000000000---------00000000---------------------------------||

Verse:

It's understood, I said it many ways
Too scared to run, I'm too scared to stay
I said I'd leave, I could never leave her
And if I did, you know I'd never cheat her

But this I ask, it's what I want to know
How would you feel, if I should choose to go
Another guy, you think it'd be unlikely
Another guy, you think he'd wanna fight me

Chorus:
[ Tab from: http://www.guitartabs.cc/tabs/b/blink_182/dumpweed_tab_ver_4.html ]
     E5          B5          A5             B5
E||------------------------------------------------------||
B||------------------------------------------------------||
G||--------------4444444444--2222222222222--44444444444--||
D||--2222222222--4444444444--2222222222222--44444444444--||
A||--2222222222--2222222222--0000000000000--22222222222--||
e||--0000000000------------------------------------------||

She's a dove, she's a fucking nightmare
Unpredictable, it was my mistake to stay here
On the go, it's way too late to play
I need a girl that I can train

Verse:

I heard it once, I'm sure I heard it twice
My dad used to give me all of his advice
He would say "you gotta turn your back and run now
Come on, son, you haven't got a chance now"

Chorus:

She's a dove, she's a fucking nightmare
Unpredictable, it was my mistake to stay here
On the go and it's way too late to play
I need a girl that I can train
She's a dove, she's a fucking nightmare
Unpredictable, it was my mistake to stay here
On the go and it's way too late to play
I need a girl that I can train

Breakdown:

     E5         B5    E5        B5      A5       B5     A5
E||-------------------------------------------------------------||
B||-------------------------------------------------------------||
G||-------------44444------------44444--2222222--44444--222222--||
D||--222222222--44444--22222222--44444--2222222--44444--222222--||
A||--222222222--22222--22222222--22222--0000000--22222--000000--||
e||--000000000---------00000000---------------------------------||
   PM..........................................................

Need a girl that I can train
Need a girl that I can train
Turn your back and run now
You haven't got a chance now

Need a girl that I can train
Need a girl that I can train
Turn your back and run now
You haven't got a chance now

Outro:

E||----------------------------------------------------------||
B||9-7-0-5-0-7-5-0-5-0-9-7-0-5-0-9-7-0-7-5-0-5-0-10-9-0-5-7--||
G||----------------------------------------------------------||
D||----------------------------------------------------------||
A||----------------------------------------------------------||
E||----------------------------------------------------------||
  pm.........................................................

-=-=-=-=-=-=-=-=-=-=-=-=-=-=-=-=-=-=-=-=-=-=-=-=-=-=-=-=-=-=-=-=-=-=-=-=-=-=
Any question mail me:
leandro_koren@yahoo.com.ar
-=-=-=-=-=-=-=-=-=-=-=-=-=-=-=-=-=-=-=-=-=-=-=-=-=-=-=-=-=-=-=-=-=-=-=-=-=-=
Comments