Blink 182 - Dumpweed Chords & Tabs

 

Dumpweed Chords & Tabs

Blink 182 Chords & Tabs

Version: 13 Type: Tab 0 ratings
1 star 2 stars 3 stars 4 stars 5 stars
comments

Dumpweed Tab

   
Intro part one:

    E                       E
E|-----------------------------------------------------|
B|-----------------------------------------------------|
G|--1-1-1h2p1---------------1-1-1h2p1------------------|
D|--2-------------4---------2-------------4------------|
A|--2---------2-0---0-------2---------2-0--------------|
E|-----------------------------------------------------|
[ Tab from: http://www.guitartabs.cc/tabs/b/blink_182/dumpweed_tab_ver_13.html ]
    A                       A
E|-----------------------------------------------------|
B|--2-----------------------2--------------------------|
G|--2-1-1h2p1---------------2-1-1h2p1-4----------------|
D|--2-------------4---------2-------------4------------|
A|--0---------2-0---0-------0-----------2--------------|
E|-----------------------------------------------------|

Intro part two:    (x2)

E|--4p0---0--4p0---0----2p0--0--2p0---0----------------|
B|------0--------0---------0--------0------------------|
G|-----------------------------------------------------|
D|-----------------------------------------------------|
A|-----------------------------------------------------|
E|-----------------------------------------------------|


E|--4p0---0--4p0---0----5p0---0--5p0---0---------------|
B|------0--------0----------0--------0-----------------|
G|-----------------------------------------------------|
D|-----------------------------------------------------|
A|-----------------------------------------------------|
E|-----------------------------------------------------|
Comments