Blink 182 - Dumpweed Chords & Tabs

 

Dumpweed Chords & Tabs

Blink 182 Chords & Tabs

Version: 6 Type: Bass Tab 0 ratings
1 star 2 stars 3 stars 4 stars 5 stars
comments

Dumpweed Bass Tab

from Enema of the State
Dumpweed
Words and Music by Tom De Longe and Mark Hoppus
Fast Rock = 192bpm


Intro
|----------------|----------------|----------------|----------------|
|----------------|----------------|----------------|----------------|
|----------------|----------------|----------------|----------------|
|-0~~~~----------|--------------0-|0~~~~-----------|----------------|

|----------------|----------------|----------------|----------------|
|----------------|----------------|----------------|----------------|
|-0~~~~----------|--------------0-|0~~~~-----------|----------------|
|----------------|----------------|----------------|----------------|

Interlude 1
|----------------|----------------|----------------|----------------|
|----------------|----------------|----------------|----------------|
|----------------|0-0---0-0-0-0-0-|2-2-2-2-2-2-2-2-|2-2---2-2-0-0-0-|
|0-0-0-0-0-0-0-0-|----------------|----------------|----------------|

Verse
|----------------|----------------|----------------|----------------|
|----------------|----------------|----------------|----------------|
|----------------|2-2-2-2-2-------|----------------|2-2-2-2-2-------|
|0-0-0-0-0-0-0-0-|----------------|0-0-0-0-0-0-0-0-|----------------|

|----------------|----------------|----------------|----------------|
|----------------|----------------|----------------|----------------|
|0-0-0-0-0-0-0-0-|2-2-2-2-2-------|0-0-0-0-0-0-0-0-|2-2-2-2-2h4-2---|
|----------------|----------------|----------------|----------------|
[ Tab from: http://www.guitartabs.cc/tabs/b/blink_182/dumpweed_btab_ver_6.html ]
Interlude 2
|----------------|----------------|----------------|----------------|
|----------------|----------------|----------------|----------------|
|----------------|----------------|7~~~~-----------|----------------|
|-0~~~~----------|----------------|0~~~~-----------|----------------|

|----------------|----------------|----------------|----------------|
|----------------|----------------|7~~-----7~~-----|9~~-------------|
|-0~~~~----------|----------------|----0~~-----0~~-|--------9-------|
|----------------|----------------|----------------|----7~~-7-------|

Chorus
|----------------|----------------|----------------|----------------|
|----------------|----------------|----------------|----------------|
|----------------|2-2-2-2-2-2-2-2-|0-0-0-0-0-0-0-0-|2-2-2-2-2-2-2-2-|
|0-0-0-0-0-0-0-0-|----------------|----------------|----------------|

|----------------|----------------|----------------|----------------|
|----------------|----------------|----------------|----------------|
|----------------|2-2-2-2-2-2-4---|0-0-0-0-0-0-0-0-|2------2--------|
|0-0-0-0-0-0-0-0-|----------------|----------------|----------------|

Outro
|----------------|----------------|----------------|----------------|
|----------------|----------------|----------------|----------------|
|----------------|2-2-2-2-2-------|----------------|2-2-2-2-2-------|
|0-0-0-0-0-0-0-0-|----------------|0-0-0-0-0-0-0-0-|----------------|

|----------------|----------------|----------------|----------------|
|----------------|----------------|----------------|----------------|
|0-0-0-0-0-0-0-0-|2-2-2-2-2-------|0-0-0-0-0-0-0-0-|2-2-2-2-2-------|
|----------------|----------------|----------------|----------------|


Intro
Interlude 1  x2
Verse  x2
Interlude 2
Chorus
Interlude 1  x2
Verse
Interlude 2
Chorus  x2
Outro  x4
Comments