Blink 182 - Dumpweed Chords & Tabs

 

Dumpweed Chords & Tabs

Blink 182 Chords & Tabs

Version: 2 Type: Bass Tab 1 rating
1 star 2 stars 3 stars 4 stars 5 stars
comments

Dumpweed Bass Tab

Intro:
G:----------------------
D:----------------------
A:----------------------
E:-0~----0~----5~----5~-

Intro continued:

G:--------------------------------------------------------------------
D:--------------------------------------------------------------------
A:--------------------------------------------------------------------
E:-0-0-0-0-0-0-0-0--5-5-5-5-5-5-5-5--7-7-7-7-7-7-7-7-7-7-7--5-5-5-5-5-

Verse:

G:-------------------------------------------------------
D:-------------------------------------------------------
A:-------------------------------------------------------
E:-0-0-0-0-0-0-0--7-7-7-7-7--0-0-0-0-0-0-0-0--7-7-7-7-7--

G:--------------------------------------------------------
D:--------------------------------------------------------
A:--------------------------------------------------------
E:5-5-5-5-5-5-5-5--7-7-7-7-7--5-5-5-5-5-5-5-5--7-7-7-7-7--
[ Tab from: http://www.guitartabs.cc/tabs/b/blink_182/dumpweed_btab_ver_2.html ]
Chorus:

G:-------------------------------------------------------------------
D:-------------------------------------------------------------------
A:-------------------------------------------------------------------
E:-0-0-0-0-0-0-0-0-7-7-7-7-7-7-7-7--5-5-5-5-5-5-5-5--7-7-7-7-7-7-7-7-

G:----------------------------------------------------------
D:----------------------------------------------------------
A:----------------------------------------------------------
E:-0-0-0-0-0-0-0-0--7-7-7-7-7-7-7-7--5-5-5-5-5-5-5-5--7--7--

Song order:

Intro:      x1
Intro con.: x1
Verse:      x2
Intro:      x1
Chorus:     x1
Intro con.: x1
Verse :     x2
Intro:      x1
Chorus:     x2
Verse:      x2
Intro con.: x1

Thats how i heard it on the C.D cause i was there like an idiot 
tryin to get it right from a different peice of tab when i figured
it out!!!!!!!!!!!!!!!!!!!!!!!!!!!!!!!!  



Comments