Blink 182 - Down Chords & Tabs

 

Down Chords & Tabs

Blink 182 Chords & Tabs

Version: 9 Type: Tab 0 ratings
1 star 2 stars 3 stars 4 stars 5 stars
comments

Down Tab

   
Blink 182 - Down

Artist's: Blink 182
Song: Down
Album: Blink 182

X = Take Your Finger Off Then On Again

Intro
e------------------|
B------------------|
G------------------|    (For The First 4 Times You Play The Intro Make Sure
D-9999x-9999-x-99-| x8  The Switch Is Up, Then When The Drums Come In
A-9999x-9999-x-99-|     Switch It Down)
E-7777x-7777-x-77-|

Verse
e-------------------------------------|
B-------------------------------------|
G-------------------------------------|
D-9999x-9999-x-99-x-6666x-8888-x-88-| x4
A-9999x-9999-x-99x-6666-x-8888-x-88-|
E-7777x-7777-x-77-x-4444-x-6666-x-66-|

Pre-Chorus
e-----|
B-----|
G-----|
D-2--|
A--2--|
E--0--|

Chorus
e---------------------------------------------------------------------------|
B---------------------------------------------------------------------------|
G---------------------------------------------------------------------------|
D-6666-x-6666-x-66-x-8888-x-8888-x-88-x-9999-x-9999-x-99-x-4444-x-4444-x-44-|
A-6666-x-6666-x-66-x-8888-x-8888-x-88-x-9999-x-9999-x-99-x-4444-x-4444-x-44-|
E-4444-x-4444-x-44-x-6666-x-6666-x-66-x-7777-x-7777-x-77-x-2222-x-2222-x-22-|

-------------------------------------|
-------------------------------------|
-------------------------------------|
-6666-x-6666-x-66-x-8888-x-8888-x-88-|
-6666-x-6666-x-66-x-8888-x-8888-x-88-|
-4444-x-4444-x-44-x-6666-x-6666-x-66-|

Play When Mark Start's Sing 'Down, Down, Down, Down'
e--------------------------------------------------------|
B--------------------------------------------------------|
G-4444-x-4444-x-44-x-------------------------------------|
D-4444-x-4444-x-44-x-2222-x-2222-x-22-x-6666-x-6666-x-66-|
A-2222-x-2222-x-22-x-2222-x-2222-x-22-x-6666-x-6666-x-66-|
E--------------------0000-x-0000-x-00-x-4444-x-4444-x-44-|
[ Tab from: http://www.guitartabs.cc/tabs/b/blink_182/down_tab_ver_9.html ]
------------------|
------------------|
------------------|
-2222-x-2222-x-22-| x2
-2222-x-2222-x-22-|
-0000-x-0000-x-00-|

Pre-Verse
e------------------|
B------------------|
G------------------|
D-9999x-9999-x-99-| x2 (Make Sure Switch Is Up)
A-9999x-9999-x-99-|
E-7777x-7777-x-77-|

Verse
e-------------------------------------|
B-------------------------------------|
G-------------------------------------|
D-9999x-9999-x-99-x-6666x-8888-x-88-| x4
A-9999x-9999-x-99x-6666-x-8888-x-88-|
E-7777x-7777-x-77-x-4444-x-6666-x-66-|

Pre-Chorus
e-----|
B-----|
G-----|
D-2--|
A--2--|
E--0--|

Chorus
e---------------------------------------------------------------------------|
B---------------------------------------------------------------------------|
G---------------------------------------------------------------------------|
D-6666-x-6666-x-66-x-8888-x-8888-x-88-x-9999-x-9999-x-99-x-4444-x-4444-x-44-|
A-6666-x-6666-x-66-x-8888-x-8888-x-88-x-9999-x-9999-x-99-x-4444-x-4444-x-44-|
E-4444-x-4444-x-44-x-6666-x-6666-x-66-x-7777-x-7777-x-77-x-2222-x-2222-x-22-|

-------------------------------------|
-------------------------------------|
-------------------------------------|
-6666-x-6666-x-66-x-8888-x-8888-x-88-|
-6666-x-6666-x-66-x-8888-x-8888-x-88-|
-4444-x-4444-x-44-x-6666-x-6666-x-66-|

Play When Mark Start's Sing 'Down, Down, Down, Down'
e--------------------------------------------------------|
B--------------------------------------------------------|
G-4444-x-4444-x-44-x-------------------------------------|
D-4444-x-4444-x-44-x-2222-x-2222-x-22-x-6666-x-6666-x-66-|
A-2222-x-2222-x-22-x-2222-x-2222-x-22-x-6666-x-6666-x-66-|
E--------------------0000-x-0000-x-00-x-4444-x-4444-x-44-|

------------------|
------------------|
------------------|
-2222-x-2222-x-22-| x2
-2222-x-2222-x-22-|
-0000-x-0000-x-00-|

Outro
e------------------|
B------12----12----|
G---11----11----11-|
D-9----------------| x16
A------------------|
E------------------|
Comments