Blink 182 - Down Chords & Tabs

 

Down Chords & Tabs

Blink 182 Chords & Tabs

Version: 8 Type: Tab 0 ratings
1 star 2 stars 3 stars 4 stars 5 stars
comments

Down Tab

from Blink 182
Down
Words and Music by Travis Barker, Tom De Longe and Mark Hoppus
Moderately = 94bpm


Intro
|---------------------------------|---------------------------------|
|---------------------------------|---------------------------------|
|-4---4-4-x-x-4---4-4-x-x-4-4-x-x-|-4---4-4-x-x-4---4-4-x-x-4-4-x-x-|
|-x---x-x-x-x-x---x-x-x-x-x-x-x-x-|-x---x-x-x-x-x---x-x-x-x-x-x-x-x-|
|-2---2-2-x-x-2---2-2-x-x-2-2-x-x-|-2---2-2-x-x-2---2-2-x-x-2-2-x-x-|
|---------------------------------|---------------------------------|

Verse
|-x-x-x-x-----x-x-x-x-----x-x-----|-------------x-x-x-x-----x-x-----|
|-2-2-2-2-----2-2-2-2-----2-2-----|-------------2-2-2-2-----2-2-----|
|-4-4-4-4-----4-4-4-4-----4-4-----|-x-x-x-x-----3-3-3-3-----3-3-----|
|-x-x-x-x-----x-x-x-x-----x-x-----|-6-6-6-6-----x-x-x-x-----x-x-----|
|-2-2-2-2-----2-2-2-2-----2-2-----|-x-x-x-x-----1-1-1-1-----1-1-----|
|---------------------------------|-4-4-4-4-------------------------|

Fill ("This can't be the end.")
     ("You did this.")
|---------------------------------|
|---------------------------------|
|---------------------------------|
|---------------------------------|
|-2~~~~~~~~~~-~~~~--~~~~--~~-~~-~-|
|-0~~~~~~~~~~-~~~~--~~~~--~~-~~-~-|

Pre-Chorus
|---------------------------------|---------------------------------|
|---------------------------------|---------------------------------|
|---------------------------------|---------------------------------|
|---------------------------------|-4---4-------4-------4---4-4-4---|
|-6---6-6-----6---6-6-----6-6-6---|-1---1-------1-------1---1-1-1/2-|
|-4---4-4-----4---4-4-----4-4-4p2-|---------------------------------|
[ Tab from: http://www.guitartabs.cc/tabs/b/blink_182/down_tab_ver_8.html ]
|---------------------------------|---------------------------------|
|---------------------------------|---------------------------------|
|---------------------------------|---------------------------------|
|-4---4-------4-------4---4-4-4---|---------------------------------|
|-2---2-------2-------2---2-2-2---|-4---4-------4-------4-----4-2-4-|
|-------------------------------2-|-2---2-------2-------2-----2-2-2-|

|---------------------------------|---------------------------------|
|---------------------------------|---------------------------------|
|---------------------------------|---------------------------------|
|---------------------------------|-4---4-4-----4-4---4-4---4---2---|
|-6---6-6-----6---6-6---6-6---6---|-1---1-1-----1-1---1-1---1---2---|
|-4---4-4-----4---4-4---4-4---4p2-|-----------------------------2---|
               
Chorus
|---------------------------------|---------------------------------|
|-x--x--x------x----x----x--x--x--|-x-x-x---------x-----x-----x-x-x-|
|-11-11-11-----11---11---11-11-11-|-9-9-9---------9-----9-----9-9-9-|
|-x--x--x------x----x----x--x--x--|-x-x-x---------x-----x-----x-x-x-|
|-9--9--9------9----9----9--9--9--|-7-7-7---------7-----7-----7-7-7-|
|---------------------------------|---------------------------------|

|---------------------------------|---------------------------------|
|-x--x-x--------x---x-x-x---x-x-x-|-x---x-x--------x--x-x-----x-x-x-|
|-8--8-8--------8---8-8-8---8-8-8-|-9---9-9--------9--9-9-----9-9-9-|
|-x--x-x--------x---x-x-x---x-x-x-|-x---x-x--------x--x-x-----x-x-x-|
|-6--6-6--------6---6-6-6---6-6-6-|-7---7-7--------7--7-7-----7-7-7-|
|---------------------------------|---------------------------------|

Verse 2 (reverse gated reverb)
|---------------------------------|---------------------------------|
|---------------------------------|---------------------------------|
|-4-------------------------------|---------------3-----------------|
|-x-------------------------------|-6-------------x-----------------|
|-2-------------------------------|-x-------------1-----------------|
|---------------------------------|-4-------------------------------|

Outro
|-------------7------------7------|
|-----7-----------7------------7--|
|-4-------4-----------4-----------|
|---------------------------------|
|---------------------------------|
|---------------------------------|


Intro  x4
Verse  x4
Fill
Pre-Chorus
Chorus  x2
Intro
Verse 2  x4
Fill
Pre Chorus
Chorus  x2
Outro  x16
Comments