Blink 182 - Down Chords & Tabs

 

Down Chords & Tabs

Blink 182 Chords & Tabs

Version: 6 Type: Tab 0 ratings
1 star 2 stars 3 stars 4 stars 5 stars
comments

Down Tab

alright...this is the way tom plays it life (or at least how he played it on
aol sessions). so it may not be the same as the cd.  

Toms plays it with a capo on the second fret...read the tabs as if the capo was
the bridge.  therefore what normally would be the 5th fret is now the 3rd and
what normally would be the 3rd is now the 1st and so on. here goes....

intro
e|------------------------|
B|------------------------|
G|------------------------|
D|------------------------|
A|-0--000-0--000-000------|
E|-5--500-5--500-550------| repeat 8x


verse
e|--------------------------------            ------|
B|--------------------------------            ------|
G|--------------------------------            ------|
D|7777-7777-77-774444-446666-6----            ------|
A|7777-7777-77-774444-446666-6----            ------|
E|5555-5555-55-552222-224444-4---- repeat 4x  ---0--| end verse

[ Tab from: http://www.guitartabs.cc/tabs/b/blink_182/down_tab_ver_6.html ]
chorus
|-------------------------------
|-------------------------------
|-------------------------------
|-4-----xx-6-----xx-7-----xx----
|-4-----xx-6-----xx-7-----xx----
|-2-16x-00-4-16X-00-5-16x-00----

-------------------------------|
-------------------------------|
-------------------------------|
-2-----xx-4-----xx-6-----xx----|
-2-----xx-4-----xx-6-----xx----|
-0-16x-00-2-16x-00-4-16x-00----| 1x


Bridge
|-----------------|
|-----------------|
|-----------------|
|-----------------|
|0--0000-00000----|
|5--5555-55550----| 8x


after that play the intro 2x


Verse 2
|------------------|
|------------------|
|------------------|
|-7--7--7--7--4----|
|-7--7--7--7--4----|
|-5--5--5--5--2----|


chorus 1x
Bridge 8x

Ending
--------------------------------------------|
--------------------------------------------|
--------------------------------------------|
--------------------------------------------|
---9---9--9----9---9--9-----9----9---9-.....|
-7---7---7---7---7---7---77---77---7---.....| fade out

Thats it...this was my first tab, so if its a bit confusing...ill try and do better next time
Comments