Blink 182 - Down Chords & Tabs

 

Down Chords & Tabs

Blink 182 Chords & Tabs

Version: 1 Type: Tab 6 ratings
1 star 2 stars 3 stars 4 stars 5 stars
comments

Down Tab

                                 Down





         INTR0
e------------------------!
B------------------------!(X4)
G------------------------!
D---9-9-x-x-x-9-9-x-x-9--!
A---x-x-x-x-x-x-x-x-x-x--!
E---7-7-x-x-x-7-7-x-x-7--!


               VERSE
e---------------------------------------!
B---------------------------------------!
G---------------------------------------!(X4)
D---------------------------------------!
A--9-9-9-9-9-9-9-9-11-11-11-11-8-8-8-8--!
E--7-7-7-7-7-7-7-7-9--9--9--9--6-6-6-6--!

e-------------------!
B-------------------!
G-------------------!
D-------------------!
A--99--2~~~~~~~~~~--!
E--77--0~~~~~~~~~~--!

[ Tab from: http://www.guitartabs.cc/tabs/b/blink_182/down_tab.html ]
                           CHORUS
e-----------------------------------------------------------------
B-----------------------------------------------------------------
G-----------------------------------------------------------------
D-----------------------------------------------------------------
A---9-9-9-9-9-9-9-9-11-11-11-11-11-11-11-11-11---9-9-9-9-9-9-9-9--
E---7-7-7-7-7-7-7-7-9--9--9--9--9--9--9--9--9----7-7-7-7-7-7-7-7--


e-----------------------------!
B-----------------------------!
G-----------------------------!
D--6-6-6-6-6-6-6-6------------!
A--4-4-4-4-4-4-4-4------------!
E-----------------------------!

PICK ME UP NOW........

e------------------------------------!
B------------------------------------!
G-----------------------8>97
Comments