Blink 182 - Down Chords & Tabs

 

Down Chords & Tabs

Blink 182 Chords & Tabs

Version: 6 Type: Bass Tab 0 ratings
1 star 2 stars 3 stars 4 stars 5 stars
comments

Down Bass Tab

from Blink 182
Down
Words and Music by Travis Barker, Tom De Longe and Mark Hoppus
Moderately = 94bpm


Intro (wait 8 bars)
|---------------------------------|---------------------------------|
|---------------------------------|---------------------------------|
|-2-2-2-2-----2-2-2-2-----2-2-----|-------------1-1-1-1-----1-1-----|
|---------------------------------|-4-4-4-4-------------------------|

Verse 1
|---------------------------------|---------------------------------|
|---------------------------------|---------------------------------|
|-2-2-2-2-----2-2-2-2-----2-2-----|-------------1-1-1-1-----1-1-----|
|---------------------------------|-4-4-4-4-------------------------|

Fill ("This can't be the end.")
     ("You did this.")
|---------------------------------|
|---------------------------------|
|---------------------------------|
|-0~~~~~~~~~~-~~~~--~~~~--~~-~~-~-|

Pre-Chorus
|---------------------------------|---------------------------------|
|---------------------------------|---------------------------------|
|---------------------------------|-1---1-------1-------1---1-1-1/2-|
|-4---4-4-----4---4-4-----4-4-4p2-|---------------------------------|

|---------------------------------|---------------------------------|
|---------------------------------|---------------------------------|
|---------------------------------|---------------------------------|
|---------------------------------|---------------------------------|
|-2---2-------2-------2---2-2-2---|---------------------------------|
|-------------------------------2-|-2---2-------2-------2-----2-2-2-|
[ Tab from: http://www.guitartabs.cc/tabs/b/blink_182/down_btab_ver_6.html ]
|---------------------------------|---------------------------------|
|---------------------------------|---------------------------------|
|---------------------------------|---------------------------------|
|---------------------------------|---------------------------------|
|---------------------------------|-1---1-1-----1-1---1-1---1-------|
|-4---4-4-----4---4-4---4-4---4p2-|-----------------------------2---|
               
Chorus
|---------------------------------|---------------------------------|
|---------------------------------|---------------------------------|
|-9--9--9------9----9----9--9--9--|-7-7-7---------7-----7-----7-7-7-|
|---------------------------------|---------------------------------|

|---------------------------------|---------------------------------|
|---------------------------------|---------------------------------|
|-6--6-6--------6---6-6-6---6-6-6-|-7---7-7--------7--7-7-----7-7-7-|
|---------------------------------|---------------------------------|

Verse 2 (played live)
|-4~~~~~~~~~~~~~------------------|-1~~~~~~~~-----3~~~~~~~~~~~------|
|---------------------------------|---------------------------------|
|---------------------------------|---------------------------------|
|---------------------------------|---------------------------------|

Outro (very quite, live only)
|---------------------------------|---------------------------------|
|-4--4--4------4----4----4--4--4--|-2-2-2---------2-----2-----2-2-2-|
|---------------------------------|---------------------------------|
|---------------------------------|---------------------------------|

|---------------------------------|---------------------------------|
|-1--1-1--------1---1-1-1---1-1-1-|-2---2-2--------2--2-2-----2-2-2-|
|---------------------------------|---------------------------------|
|---------------------------------|---------------------------------|


Intro  x2
Verse 1  x4
Fill
Pre-Chorus
Chorus  x2
-pause-
Verse 2  x2
Verse 1  x2
Fill
Pre Chorus
Chorus  x2
Outro x4 (live only)
Comments