Blink 182 - Down Chords & Tabs

 

Down Chords & Tabs

Blink 182 Chords & Tabs

Version: 3 Type: Bass Tab 0 ratings
1 star 2 stars 3 stars 4 stars 5 stars
comments

Down Bass Tab

   
Tab by Pat
Rate Please

Intro
G/------------------------------------------------|
D/------------------------------------------------|
A/------------------------------------------------|
E/-5-5-5-5--5-5-5-5--5-5--2-2-2-2--4-4-4-4--4-4---| x2

Verse
G/------------------------------------------------|
D/------------------------------------------------|
A/-4----------------------------------------------|
E/---5-ring-5h7-2-2-2-2--4-4-4-4--4-4-------------| x4

End 4th with
G/------------|
D/------------|
A/------------|
E/-0-ring-----|
[ Tab from: http://www.guitartabs.cc/tabs/b/blink_182/down_btab_ver_3.html ]
Chorus
G/-----------------------------------------------------|
D/-----------------------------------------------------|
A/-2-2-2-2-2222-4-4-4-4-4444-5-5-5-5-5555-0-0-0-0-0000-|
E/-----------------------------------------------------|
Chorus Continued
G/-----------------------------------------------------|
D/-----------------------------------------------------|
A/-2-2-2-2-2222-5-5-5-5-5555---------------------------|
E/-----------------------------------------------------| x1

Bridge (Down, Down, Down, Down....)
G/-----------------------------------------------------|
D/-----------------------------------------------------|
A/-2-2-2-2---------------------------------------------|
E/----------0-0-0-0--4-4-4-4--0-0-0-0------------------| x2

G/------------|
D/------------|
A/------------|
E/-0-ring-----| x3 During drums and effects

End with
G/------------|
D/------------|
A/------------|
E/-0-ring-----|

Order
-Intro  x2
-Verse  x4
-Chorus x1
-Bridge x2
-Intro  x1
-Verse  x4
-Chorus x1
-Bridge x2
-End

That's all folks
Comments