Blink 182 - Down Chords & Tabs

 

Down Chords & Tabs

Blink 182 Chords & Tabs

Version: 1 Type: Bass Tab 0 ratings
1 star 2 stars 3 stars 4 stars 5 stars
comments

Down Bass Tab

Tabbed by: Zack (prozack_attack@yahoo.com)
this is my first tab please rate

intro/verse(second part) (listen for the rythme)
G|--------------------------------------------
D|--------------------------------------------
A|-2222-222--------1111-----------------------
E|-----------2/444----------------------------

Before chorus
G|--------------------------------------------
D|--------------------------------------------
A|--------------------------------------------
E|-0~-----------------------------------------

Chorus
G|----------------------------------------------------------
D|----------------------------------------------------------
A|----------11111111-22222222----------------------11111111-
E|-44444444-------------------22-22-22-22-44444444----------

after chorus(mark sings Down,down....)
G|-----------------------------------------|----
D|-------------------------------------x2--|----
A|-22222222--------------------------------|-2~-
E|----------00000000-44444444-00000000-----|----

verse(first part)
G|--------------------------------------------
D|------------------------------------x2------
A|-2~------1~/2~------1~/---------------------
E|----2/4~-------2/4~-------------------------

intro/verse(second part) (listen for the rythme)
G|--------------------------------------------
D|--------------------------------------------
A|-2222-222--------1111-----------------------
E|-----------2/444----------------------------
[ Tab from: http://www.guitartabs.cc/tabs/b/blink_182/down_btab.html ]
Before chorus
G|--------------------------------------------
D|--------------------------------------------
A|--------------------------------------------
E|-0~-----------------------------------------

Chorus
G|----------------------------------------------------------
D|----------------------------------------------------------
A|----------11111111-22222222----------------------11111111-
E|-44444444-------------------22-22-22-22-44444444----------

after chorus(mark sings Down,down....)
G|-----------------------------------------
D|-------------------------------------x2--
A|-22222222--------------------------------
E|----------00000000-44444444-00000000-----

Outro
G|--------------------------------------------
D|--------------------------------------------
A|-2~--------2~-----------2~-----------2~-----
E|--------------------------------------------
OR
(this part isn't played but i think it sounds better)
G|--------------------------------------------
D|-9~----11~----6~-----4~---------------------
A|--------------------------------------------
E|--------------------------------------------
play this^^^ with guitar every time it hits nine( you'll know what i mean)

(Guitar outro part at the end(panio))
e|----------------------------------------------
B|------12-------12----------12-------12--------
G|---11----11-11----11-----11----11-11----11----
D|-9---------------------9----------------------
A|----------------------------------------------
E|----------------------------------------------

thanks, please rate
Comments