Blink 182 - Dont Chords & Tabs

 

Dont Chords & Tabs

Blink 182 Chords & Tabs

Version: 1 Type: Tab 0 ratings
1 star 2 stars 3 stars 4 stars 5 stars
comments

Dont Tab

   
Artist: Blink 182
Song: Donít
Album: Buddha
Tabbed By: Denis Kreynin

Intro (palm mute these chords)

E----------------------------------------------------------
B----------------------------------------------------------
G-------------------------0-----0-----0-----0--------------
D-77-777-77-777-77-777-7---4-0---4-0---4-0---4-0-----------
A-55-555-55-555-55-555-5-----------------------------------
E----------------------------------------------------------

Intro continued x4 (Play this part really fast)

E----3----3----3----3h2------------------------------------
B-3-3--3-3--3-3--3-3---------------------------------------
G----------------------------------------------------------
D----------------------------------------------------------
A----------------------------------------------------------
E----------------------------------------------------------

Intro continued           
                                                     
E----------------------------------------------------------
B----------------------------------------------------------
G-0----0-----0-----0---------------------------------------
D--4-0--4-0---4-0---4-0------------------------------------
A----------2-----2-----2-----------------------------------
E----------------------------------------------------------

[ Tab from: http://www.guitartabs.cc/tabs/b/blink_182/dont_tab.html ]
Verse           The Bass plays this part but I tabbed it 
                for guitar
E-------------|--------------------------------------------
B-------------|--------------------------------------------
G-7-----------|--------------------------------------------
D-7-(let-ring)|--------------------------------------------
A-5-----------|--------------------------------------------
E-------------|-11111111-33333333-55555555-66666666--------

Verse continued

E----------------------------------------------------------
B----------------------------------------------------------
G----------------------------------------------------------
D----------------------------------------------------------
A----------------------------------------------------------
E-11111111-33333333-55555555-66666666----------------------

Chorus (play this every sentence you sing)

E----------------------------------------------------------
B----------------------------------------------------------
G----------------------------------------------------------
D-555555555-444444444-7777777777777------------------------
A-555555555-444444444-7777777777777------------------------
E-333333333-222222222-5555555555555------------------------

Interlude (play this kinda slow)

E----------------------------------------------------------
B--2-2-2-2-2-2-2--3-3-3-3-3-3--3ó2-2-2-2-2-2-2-3-3-3-3-3---
G-2-------------2-------------2---------------2------------
D----------------------------------------------------------
A----------------------------------------------------------
E----------------------------------------------------------

play the Intro

play the Verse

play the Chorus

play the Interlude

Interlude 2 x4 (Remember: Play this really fast)

E----3----3----3----3h2------------------------------------
B-3-3--3-3--3ó3--3-3---------------------------------------
G----------------------------------------------------------
D----------------------------------------------------------
A----------------------------------------------------------
E----------------------------------------------------------

End On

D-5-
A-5-
E-3-

Thatís it. Done

Comments