Blink 182 - Dont Leave Me Chords & Tabs

 

Dont Leave Me Chords & Tabs

Blink 182 Chords & Tabs

Version: 6 Type: Tab 0 ratings
1 star 2 stars 3 stars 4 stars 5 stars
comments

Dont Leave Me Tab

dont leave me
intro
e|--------------------------------------------------|
B|--------------------------------------------------|
G|-----------xxxx-7777-xxxx-44444-7777-9999---------|
D|-xxxx-7777-xxxx-7777-xxxx-44444-7777-9999---------|
A|-xxxx-7777-xxxx-5555-xxxx-22222-5555-7777---------|
E|-xxxx-5555----------------------------------------|

e|--------------------------------------------------|
B|--------------------------------------------------|
G|-xxxx-2222-xxxx-7777-xxxx-4444-7777-9999----------|
D|-xxxx-2222-xxxx-7777-xxxx-4444-7777-9999----------|
A|-xxxx-0000-xxxx-5555-xxxx-2222-5555-7777----------|
E|--------------------------------------------------|

e|------|
B|------|
G|------|
D|-7----|   let ring
A|-7----|
E|-5----|

e|-------------------------------------------------|
B|-------------------------------------------------|
G|-------------444444-777777-999999----------------|   2x
D|-xxxx-777777-444444-777777-999999----------------|
A|-xxxx-777777-222222-555555-777777----------------|
E|-xxxx-555555-------------------------------------|
[ Tab from: http://www.guitartabs.cc/tabs/b/blink_182/dont_leave_me_tab_ver_6.html ]
e|-------------------------------------------------|
B|-------------------------------------------------|
G|---------------4-444-7777-9-999------------------|  2x
D|-xxxxxx-777777-4-444-7777-9-999------------------|
A|-xxxxxx-777777-2-222-5555-7-777------------------|
E|-xxxxxx-555555-----------------------------------|

repeat intro again and chorus and last time chorus is

e|-------------------------------------------------|
B|-------------------------------------------------|
G|---------------4-444-7777777---------------------|  
D|-xxxxxx-777777-4-444-7777777-7~~~~---------------|
A|-xxxxxx-777777-2-222-5555555-0~~~~---------------|
E|-xxxxxx-555555-----------------------------------|
~= let ring       then THIS KIND OF INTERLUDE
e|---------------------------------|
B|---------------------------------|
G|---------------------------------|
D|---7--7777777----7--77777777-----|
A|-0----0000000--0----00000000-----|
E|---------------------------------| play with those notes

outro

e|-------------------------------------------------|
B|-------------------------------------------------|
G|---------------4-444-7777777--------9------------|  
D|-xxxxxx-777777-4-444-7777777-7~~~~--9---7~~~-----|
A|-xxxxxx-777777-2-222-5555555-0~~~~--7---7~~~-----|
E|-xxxxxx-555555--------------------------5~~~-----|

you can put the order of the song thats all (art)
Comments