Blink 182 - Dont Leave Me Chords & Tabs

 

Dont Leave Me Chords & Tabs

Blink 182 Chords & Tabs

Version: 1 Type: Tab 0 ratings
1 star 2 stars 3 stars 4 stars 5 stars
comments

Dont Leave Me Tab

#-----------------------------------------------------------------------------#
#-- File created with Instab - http://www.pconline.com/~smcarey/instab.html --#
#-----------------------------------------------------------------------------#

Author/Artist: blink 182
Title: dont leave me
Album: enema of the state
Transcribed by: Brett & Will
Email: notorious_sov@hotmail.com

don't send comments just send cool tabs

--------------------------|----------------------|----------------------------
--------------------------|----------------------|----------------------------
------------2------2--2--2|----------7----7--7--7|-----------4----4-4-4-------
------------2------2--2--2|----------7----7--7--7|-----------4----4-4-4-------
-0-0-0-0----0------0--0--0|-0-0-0-0--5----7--5--5|-5-5-5-5---2----2-2-2-------
--------------------------|----------------------|----------------------------
                                                                              

----------------------------|--------------------------|----------------------
----------------------------|--------------------------|----------------------
-7--7-7---7-7--9--9-9---9-9-|------------2------2--2--2|-----------7---7--77--
-7--7-7---7-7--9--9-9---9-9-|------------2------2--2--2------------7---7--77--
-5--5-5---5-5--7--7-7---7-7-|-7-7-7-7----0------0--0--0|-0-0-0-0---5---5--55--
----------------------------|--------------------------|----------------------
                                                                              

---------------------------|------------------------------|-------------------
---------------------------|------------------------------|-------------------
-------------4-----4--4--4-|-7---7-7----7--7---9--9-9--9-9|-2-----------------
-------------4-----4--4--4-|-7---7-7----7--7---9--9-9--9-9|-2-----------------
--5-5-5-5----2-----2--2--2-|-5---5-5----5--5---7--7-7--7-7|-0-----------------
---------------------------|------------------------------|-------------------
                                                 but a little worse and.....  

--------------------|-------------------------------------|-------------------
--------------------|-------------------------------------|-------------------
-2------------------|-------------------------------------|-------------------
-2------------------|-------------------------------------|-------------------
-0------------------|-------------------------------------|-5-5-5-5-5-5-5-5---
--------------------|-------------------------------------|-------------------
     she siad that.....                                                       
[ Tab from: http://www.guitartabs.cc/tabs/b/blink_182/dont_leave_me_tab.html ]
-----------------------------|-----------------------------|------------------
-----------------------------|-----------------------------|------------------
--2--2-2--2-2---4---4--4---4-|-7--7--7---7-7--9--9--9---9-9|------------------
--2--2-2--2-2---4---4--4---4-|-7--7--7---7-7--9--9--9---9-9|------------------
--0--0-0--0-0---2---2--2---2-|-5--5--5---5-5--7--7--7---7-7|------------------
-----------------------------|-----------------------------|------------------
                                                                              

-----------------------------------|------------------------------------------
-----------------------------------|------------------------------------------
-2--2--2---2--2---4---4--4---4--4--|--7--7--7---7--7--9-----------------------
-2--2--2---2--2---4---4--4---4--4--|--7--7--7---7--7--9-----------------------
-0--0--0---0--0---2---2--2---2--2--|--5--5--5---5--5--7----7-7-7-7-7-7--------
-----------------------------------|------------------------------------------
                                                            palm mute         

-------------------------------------|----------------------------------------
-------------------------------------|----------------------------------------
-2---2--2--2---2--2--4--4--4---4--4--|--7---7--7---7--7--9--9--9---9--9-------
-2---2--2--2---2--2--4--4--4---4--4--|--7---7--7---7--7--9--9--9---9--9-------
-0---0--0--0---0--0--2--2--2---2--2--|--5---5--5---5--5--7--7--7---7--7-------
-------------------------------------|----------------------------------------
                                                                              

----------------------------------|--------------------------------|----------
----------------------------------|--------------------------------|--10------
-2---2--2---2--2--4--4--4---4--4--|--7---7--7---7-7-7-7-7-7-7-7-7--|---9------
-2---2--2---2--2--4--4--4---4--4--|--7---7--7---7-7-7-7-7-7-7-7-7--|---7------
-0---0--0---0--0--2--2--2---2--2--|--5---5--5---5-5-5-5-5-5-5-5-5--|---0------
----------------------------------|--------------------------------|----------
     Don't let my door hit your ass                                 let ring  

----------------------------|-------------------------------------------------
-----------10---------------|------------10-----------------------------------
------------x---------------|-------------x-----------------------------------
-7----7-----7----7---7---7--|--7----7-----7----7----7----7--------------------
-0----0----------0---0---0--|--0----0----------0----0----0--------------------
----------------------------|-------------------------------------------------
 let's try this one more time with feeling                                    

Comments