Blink 182 - Dont Leave Me Chords & Tabs

 

Dont Leave Me Chords & Tabs

Blink 182 Chords & Tabs

Version: 4 Type: Bass Tab 0 ratings
1 star 2 stars 3 stars 4 stars 5 stars
comments

Dont Leave Me Bass Tab

from Enema of the State
Don't Leave Me
Words and Music by Tom De Longe and Mark Hoppus
Moderate Rock = 148bpm


Intro
|----------------|----------------|----------------|----------------|
|----------------|----------------|----------------|----------------|
|-0000--0--0-0-0-|-0000--5--5-5-5-|-5555--2--2-2-2-|-5-55-55-7-77-77|
|----------------|----------------|----------------|----------------|

|----------------|----------------|----------------|----------------|
|----------------|----------------|----------------|----------------|
|-7777--0--0-0-0-|-0000--5--5-5-5-|-5555--2--2-2-2-|-5-55-55-7-77-77|
|----------------|----------------|----------------|----------------|

Verse
|----------------|----------------|----------------|----------------|
|----------------|----------------|----------------|----------------|
|0-0-0-0-0-0-0-0-|5-5-5-5-5-5-5-5-|2-2-2-2-2-2-2-2-|5-5-5-5-5-5-5-5-|
|----------------|----------------|----------------|----------------|

|----------------|----------------|----------------|----------------|
|----------------|----------------|----------------|----------------|
|0-0-0-0-0-0-0-0-|5-5-5-5-5-5-5-5-|2-2-2-2-2-2-2-2-|5-5-5-5-55555555|
|----------------|----------------|----------------|----------------|

Chorus
|----------------|----------------|----------------|----------------|
|----------------|----------------|----------------|----------------|
|0-00-00-2-22-22-|5-55-55-7-77-77-|0-00-00-2-22-22-|5-55-55-7-77-77-|
|----------------|----------------|----------------|----------------|

|----------------|----------------|----------------|----------------|
|----------------|----------------|----------------|----------------|
|0-00-00-2-22-22-|5-55-55-7-77-77-|0-00-00-2-22-22-|5-55-55-55555555|
|----------------|----------------|----------------|----------------|
[ Tab from: http://www.guitartabs.cc/tabs/b/blink_182/dont_leave_me_btab_ver_4.html ]
Interlude
|----------------|----------------|----------------|----------------|
|----------------|----------------|----------------|----------------|
|-5555--0--0-0-0-|-0000--5--5-5-5-|-5555--2--2-2-2-|-5-55-55-7-77-77|
|----------------|----------------|----------------|----------------|

|----------------|----------------|----------------|----------------|
|----------------|----------------|----------------|----------------|
|-7777--0--0-0-0-|-0000--5--5-5-5-|-5555--2--2-2-2-|-5-55-55-7-77-77|
|----------------|----------------|----------------|----------------|

Verse 2
|----------------|----------------|----------------|----------------|
|----------------|----------------|----------------|----------------|
|0-00-00-0-0-000-|5-55-55-5-5-555-|2-22-22-2-2-222-|5-55-55-5-5-555-|
|----------------|----------------|----------------|----------------|

|----------------|----------------|----------------|----------------|
|----------------|----------------|----------------|----------------|
|0-00-00-0-0-000-|5-55-55-5-5-555-|2-22-22-2-2-222-|5-55-55-77777777|
|----------------|----------------|----------------|----------------|

Interlude 2
|----------------|----------------|
|--------9-9-9-9-|7-77-77-7-7-7-7-|
|0-00-00-7-7-7-7-|5-55-55-5-5-5-5-|  x7
|----------------|----------------|

|----------------|----------------|
|--------9-9-9-9-|7-77-77---------|
|0-00-00-7-7-7-7-|5-55-55-55555555|
|----------------|----------------|

Outro
|----------------|----------------|----------------|----------------|
|----------------|----------------|----------------|----------------|
|0-0-0-0-0-0-0-0-|5-5-5-5-5-5-5-5-|2-2-2-2-2-2-2-2-|5-5-5-5-7-------|
|----------------|----------------|----------------|----------------|

|----------------|----------------|
|-2~~~~~~~~~~~~~~|----------------|
|-0~~~~~~~~~~~~~~|----------------|
|----------------|----------------|


Intro
Verse
Chorus
Interlude
Verse 2
Chorus
Interlude 2
Chorus
Outro
Comments