Blink 182 - Dont Chords & Tabs

 

Dont Chords & Tabs

Blink 182 Chords & Tabs

Version: 2 Type: Bass Tab 0 ratings
1 star 2 stars 3 stars 4 stars 5 stars
comments

Dont Bass Tab

Song:Don't
Band:Blink 182
Album:Budda
tabbed by:Nick Mighall


Intro(im not sure how right it is but I think its close)
      There is a strange rhythm you have to work out for this intro.
      But its not to hard.

G:-7---7-7-7-7-7-------------------------------------------------
D:---5---0-5-5-5-------------------------------------------------
A:---------------------------------------------------------------
E:---------------------------------------------------------------

Verse

G:---------------------------------------------------------------
D:-5-5-5-5-7-7-7-7-9-9-9-9-10-10-10-10---------------------------
A:---------------------------------------------------------------
E:---------------------------------------------------------------

Chorus
[ Tab from: http://www.guitartabs.cc/tabs/b/blink_182/dont_btab_ver_2.html ]
G:---------------------------------------------------------------
D:-7-7-7-7-------------------------------------------------------
A:---------9-9-9-9-5-5-5-5-5-5-5-5-------------------------------
E:---------------------------------------------------------------

After Chorus(under guitar solo)

G:---------------------------------------------------------------
D:-7-7-7-7-7-7-7-7-----------------------------------------------
A:-----------------5-5-5-5-5-5-5-5-------------------------------
E:---------------------------------------------------------------


*Order*
Intro        x 11
Verse        x 2
Intro        x 8
Verse        x 4
Chorus       x 4
After Chorus x 2
Intro        x 8
Verse        x 2
Intro        x 8
Verse        x 4
Chorus       x 4
After Chorus x 2
Verse        x 2

End on D-5-

Questions,comments and corrections to:
Nickmighall182@hotmail.com
Comments