Blink 182 - Dick Lips Chords & Tabs

 

Dick Lips Chords & Tabs

Blink 182 Chords & Tabs

Version: 5 Type: Tab 0 ratings
1 star 2 stars 3 stars 4 stars 5 stars
comments

Dick Lips Tab

Dick Lips- Blink 182
tab submitted by kevin 
e-mail: Easy_Out@imapunk.com

Intro:
e---------------------------------------------------
b---------------------------------------------------
g--------------------------------------------------- 2x
d-77777777-77777777-77777777--77777777--------------
a-44444444-55555555-00000000--77777777--------------
E---------------------------------------------------

Verse:
e------------------------------------
b------------------------------------
g------------------7777777--9999999--
d--77777777777777--7777777--9999999--
a--77777777777777--5555555--7777777--
E--55555555555555--------------------

(then intro again)
[ Tab from: http://www.guitartabs.cc/tabs/b/blink_182/dick_lips_tab_ver_5.html ]
Chorus:
e-----------------------------------------
b-----------------------------------------
g--6666666--77777777------------99999999--
d--6666666--77777777--77777777--99999999--
a--4444444--55555555--77777777--77777777--
E---------------------55555555------------
(then intro again)
(then verse again)
(then intro again)
(then chorus again)

pre solo:
e---------------------
b---------------------
g---------------------
d--7-7-7-7-7-7-7-7-7--
a--4-4-4-5-5-5-7-7-7--
E---------------------

solo:
e---------------------------------
b---------------------------------
g---------------------------------
d----------7-6-----------7-7-7-7--
a--7-7-7-7-5-4-2-2-2-2/5-5-5-5-5--
E--5-5-5-5-----0-0-0-0------------

after solo:
e---------
b--9------
g--7------ repeat for as many times needed
d---------
a---------
E---------

Chorus:
e-----------------------------------------    ---
b-----------------------------------------last---
g--6666666--77777777------------99999999--note---
d--6666666--77777777--77777777--99999999-- is -7-
a--4444444--55555555--77777777--77777777--    -7-
E---------------------55555555------------    -5-

Comments