Blink 182 - Dick Lips Chords & Tabs

 

Dick Lips Chords & Tabs

Blink 182 Chords & Tabs

Version: 10 Type: Tab 0 ratings
1 star 2 stars 3 stars 4 stars 5 stars
comments

Dick Lips Tab

   
-------------------------------------------------------------------------------
			   dick lips - blink 182
-------------------------------------------------------------------------------
Tabbed by:Nick-182
Email: who_nicked_the_boy@hotmail.com
Notice: This is the authors work only, Blink 182 wrote this tab and the rights belong to them.
Tuning: standard
  
 Intro X2
e|----------------------------------------------------------------|
B|----------------------------------------------------------------|
G|----------------------------------------------------------------|
D|-7--7-7-7-7-7-7-7-7-7-7-7-7-7-7--7--7-7-7-7-7-7-7-7-7-7-7-7-7-7-|
A|-4--4-4-4-4-4-4-4-4-4-4-4-4-4-4--5--5-5-5-5-5-5-5-5-5-5-5-5-5-5-|
E|----------------------------------------------------------------|

e|----------------------------------------------------------------|
B|----------------------------------------------------------------|
G|----------------------------------------------------------------|
D|-7--7-7-7-7-7-7-7-7-7-7-7-7-7-7--9--9-9-9-9-9-9-9-9-9-9-9-9-9-9-|
A|-0--0-0-0-0-0-0-0-0-0-0-0-0-0-0--7--7-7-7-7-7-7-7-7-7-7-7-7-7-7-|
E|----------------------------------------------------------------|

 Verse X1
e|-5--5-5-5-5-5-5-5-5-5-5-5-5-5-5--5-5-5-5-5-5-5-5-5-5-5-5-5-5-5-5-|
B|-5--5-5-5-5-5-5-5-5-5-5-5-5-5-5--5-5-5-5-5-5-5-5-5-5-5-5-5-5-5-5-|
G|-6--6-6-6-6-6-6-6-6-6-6-6-6-6-6--6-6-6-6-6-6-6-6-6-6-6-6-6-6-6-6-|
D|-7--7-7-7-7-7-7-7-7-7-7-7-7-7-7--7-7-7-7-7-7-7-7-7-7-7-7-7-7-7-7-|
A|-7--7-7-7-7-7-7-7-7-7-7-7-7-7-7--7-7-7-7-7-7-7-7-7-7-7-7-7-7-7-7-|
E|-5--5-5-5-5-5-5-5-5-5-5-5-5-5-5--5-5-5-5-5-5-5-5-5-5-5-5-5-5-5-5-|

e|----------------------------------------------------------------|
B|-7--7-7-7-7-7-7-7-7-7-7-7-7-7-7--9--9-9-9-9-9-9-9-9-9-9-9-9-9-9-|
G|-7--7-7-7-7-7-7-7-7-7-7-7-7-7-7--9--9-9-9-9-9-9-9-9-9-9-9-9-9-9-|
D|-7--7-7-7-7-7-7-7-7-7-7-7-7-7-7--9--9-9-9-9-9-9-9-9-9-9-9-9-9-9-|
A|-5--5-5-5-5-5-5-5-5-5-5-5-5-5-5--7--7-7-7-7-7-7-7-7-7-7-7-7-7-7-|
E|----------------------------------------------------------------|

e|-5--5-5-5-5-5-5-5-5-5-5-5-5-5-5--5-5-5-5-5-5-5-5-5-5-5--5--5--5--5--5-|
B|-5--5-5-5-5-5-5-5-5-5-5-5-5-5-5--5-5-5-5-5-5-5-5-5-5-5--5--5--5--5--5-|
G|-6--6-6-6-6-6-6-6-6-6-6-6-6-6-6--6-6-6-6-6-6-6-6-6-6-6--6--6--6--6--6-|
D|-7--7-7-7-7-7-7-7-7-7-7-7-7-7-7--7-7-7-7-7-7-7-7-7-7-7--7--7--7--7--7-|
A|-7--7-7-7-7-7-7-7-7-7-7-7-7-7-7--7-7-7-7-7-7-7-7-7-7-7--7--7--7--7--7-|
E|-5--5-5-5-5-5-5-5-5-5-5-5-5-5-5--5-5-5-5-5-5-5-5-5-5-5--5--5--5--5--5-|

e|----------------------------------------------------------------|
B|-7--7-7-7-7-7-7-7-7-7-7-7-7-7-7--9--9-9-9-9-9-9-9-9-9-9-9-9-9-9-|
G|-7--7-7-7-7-7-7-7-7-7-7-7-7-7-7--9--9-9-9-9-9-9-9-9-9-9-9-9-9-9-|
D|-7--7-7-7-7-7-7-7-7-7-7-7-7-7-7--9--9-9-9-9-9-9-9-9-9-9-9-9-9-9-|
A|-5--5-5-5-5-5-5-5-5-5-5-5-5-5-5--7--7-7-7-7-7-7-7-7-7-7-7-7-7-7-|
E|----------------------------------------------------------------|
  
 Pre-chorus (guitar 1)  (play this bit once and stop)
e|----------------------------------------------------------------|
B|----------------------------------------------------------------|
G|-6------------------------------(6)/7---------------------------|
D|-7------------------------------(x)/x---------------------------|
A|-4------------------------------(4)/5---------------------------|
E|----------------------------------------------------------------|
 
 Pre-chorus (guitar 2) X2
e|----------------------------------------------------------------|
B|----------------------------------------------------------------|
G|----------------------------------------------------------------|
D|-7--7-7-7-7-7-7-7-7-7-7-7-7-7-7--7--7-7-7-7-7-7-7-7-7-7-7-7-7-7-|
A|-4--4-4-4-4-4-4-4-4-4-4-4-4-4-4--5--5-5-5-5-5-5-5-5-5-5-5-5-5-5-|
E|----------------------------------------------------------------|

e|----------------------------------------------------------------|
B|----------------------------------------------------------------|
G|----------------------------------------------------------------|
D|-7--7-7-7-7-7-7-7-7-7-7-7-7-7-7--9--9-9-9-9-9-9-9-9-9-9-9-9-9-9-|
A|-0--0-0-0-0-0-0-0-0-0-0-0-0-0-0--7--7-7-7-7-7-7-7-7-7-7-7-7-7-7-|
E|----------------------------------------------------------------| 


 Chorus X3 
e|------------------------------| 
B|-10--------10--------9--------|
G|-x---------x---------x--------|
D|-7---------7---------6--------|
A|------------------------------|
E|------------------------------|

then
e|------------------------------| 
B|-12------------------9--------|
G|-x-------------------x--------|
D|-9-------------------6--------|
A|------------------------------|
E|------------------------------|

then this X2
e|------------------------------| 
B|-10--------10--------9--------|
G|-x---------x---------x--------|
D|-7---------7---------6--------|
A|------------------------------|
E|------------------------------|

Pre verse X2
e|----------------------------------------------------------------|
B|----------------------------------------------------------------|
G|----------------------------------------------------------------|
D|-7--7-7-7-7-7-7-7-7-7-7-7-7-7-7--7--7-7-7-7-7-7-7-7-7-7-7-7-7-7-|
A|-4--4-4-4-4-4-4-4-4-4-4-4-4-4-4--5--5-5-5-5-5-5-5-5-5-5-5-5-5-5-|
E|----------------------------------------------------------------|

e|----------------------------------------------------------------|
B|----------------------------------------------------------------|
G|----------------------------------------------------------------|
D|-7--7-7-7-7-7-7-7-7-7-7-7-7-7-7--9--9-9-9-9-9-9-9-9-9-9-9-9-9-9-|
A|-0--0-0-0-0-0-0-0-0-0-0-0-0-0-0--7--7-7-7-7-7-7-7-7-7-7-7-7-7-7-|
E|----------------------------------------------------------------|

 Verse X1
e|-5--5-5-5-5-5-5-5-5-5-5-5-5-5-5--5-5-5-5-5-5-5-5-5-5-5-5-5-5-5-5-|
B|-5--5-5-5-5-5-5-5-5-5-5-5-5-5-5--5-5-5-5-5-5-5-5-5-5-5-5-5-5-5-5-|
G|-6--6-6-6-6-6-6-6-6-6-6-6-6-6-6--6-6-6-6-6-6-6-6-6-6-6-6-6-6-6-6-|
D|-7--7-7-7-7-7-7-7-7-7-7-7-7-7-7--7-7-7-7-7-7-7-7-7-7-7-7-7-7-7-7-|
A|-7--7-7-7-7-7-7-7-7-7-7-7-7-7-7--7-7-7-7-7-7-7-7-7-7-7-7-7-7-7-7-|
E|-5--5-5-5-5-5-5-5-5-5-5-5-5-5-5--5-5-5-5-5-5-5-5-5-5-5-5-5-5-5-5-|
[ Tab from: http://www.guitartabs.cc/tabs/b/blink_182/dick_lips_tab_ver_10.html ]
e|----------------------------------------------------------------|
B|-7--7-7-7-7-7-7-7-7-7-7-7-7-7-7--9--9-9-9-9-9-9-9-9-9-9-9-9-9-9-|
G|-7--7-7-7-7-7-7-7-7-7-7-7-7-7-7--9--9-9-9-9-9-9-9-9-9-9-9-9-9-9-|
D|-7--7-7-7-7-7-7-7-7-7-7-7-7-7-7--9--9-9-9-9-9-9-9-9-9-9-9-9-9-9-|
A|-5--5-5-5-5-5-5-5-5-5-5-5-5-5-5--7--7-7-7-7-7-7-7-7-7-7-7-7-7-7-|
E|----------------------------------------------------------------|

e|-5--5-5-5-5-5-5-5-5-5-5-5-5-5-5--5-5-5-5-5-5-5-5-5-5-5--5--5--5--5--5-|
B|-5--5-5-5-5-5-5-5-5-5-5-5-5-5-5--5-5-5-5-5-5-5-5-5-5-5--5--5--5--5--5-|
G|-6--6-6-6-6-6-6-6-6-6-6-6-6-6-6--6-6-6-6-6-6-6-6-6-6-6--6--6--6--6--6-|
D|-7--7-7-7-7-7-7-7-7-7-7-7-7-7-7--7-7-7-7-7-7-7-7-7-7-7--7--7--7--7--7-|
A|-7--7-7-7-7-7-7-7-7-7-7-7-7-7-7--7-7-7-7-7-7-7-7-7-7-7--7--7--7--7--7-|
E|-5--5-5-5-5-5-5-5-5-5-5-5-5-5-5--5-5-5-5-5-5-5-5-5-5-5--5--5--5--5--5-|

e|----------------------------------------------------------------|
B|-7--7-7-7-7-7-7-7-7-7-7-7-7-7-7--9--9-9-9-9-9-9-9-9-9-9-9-9-9-9-|
G|-7--7-7-7-7-7-7-7-7-7-7-7-7-7-7--9--9-9-9-9-9-9-9-9-9-9-9-9-9-9-|
D|-7--7-7-7-7-7-7-7-7-7-7-7-7-7-7--9--9-9-9-9-9-9-9-9-9-9-9-9-9-9-|
A|-5--5-5-5-5-5-5-5-5-5-5-5-5-5-5--7--7-7-7-7-7-7-7-7-7-7-7-7-7-7-|
E|----------------------------------------------------------------|

 Pre-chorus (guitar 1)  (play this bit once and stop)
e|----------------------------------------------------------------|
B|----------------------------------------------------------------|
G|-6------------------------------(6)/7---------------------------|
D|-7------------------------------(x)/x---------------------------|
A|-4------------------------------(4)/5---------------------------|
E|----------------------------------------------------------------|
 
 Pre-chorus (guitar 2) X2
e|----------------------------------------------------------------|
B|----------------------------------------------------------------|
G|----------------------------------------------------------------|
D|-7--7-7-7-7-7-7-7-7-7-7-7-7-7-7--7--7-7-7-7-7-7-7-7-7-7-7-7-7-7-|
A|-4--4-4-4-4-4-4-4-4-4-4-4-4-4-4--5--5-5-5-5-5-5-5-5-5-5-5-5-5-5-|
E|----------------------------------------------------------------|

e|----------------------------------------------------------------|
B|----------------------------------------------------------------|
G|----------------------------------------------------------------|
D|-7--7-7-7-7-7-7-7-7-7-7-7-7-7-7--9--9-9-9-9-9-9-9-9-9-9-9-9-9-9-|
A|-0--0-0-0-0-0-0-0-0-0-0-0-0-0-0--7--7-7-7-7-7-7-7-7-7-7-7-7-7-7-|
E|----------------------------------------------------------------| 


 Chorus X3 
e|------------------------------| 
B|-10--------10--------9--------|
G|-x---------x---------x--------|
D|-7---------7---------6--------|
A|------------------------------|
E|------------------------------|

then
e|------------------------------| 
B|-12------------------9--------|
G|-x-------------------x--------|
D|-9-------------------6--------|
A|------------------------------|
E|------------------------------|

then this X2
e|------------------------------| 
B|-10--------10--------9--------|
G|-x---------x---------x--------|
D|-7---------7---------6--------|
A|------------------------------|
E|------------------------------|

 Pre-bridge X2
e|-----------------------------------------------------------------|
B|-----------------------------------------------------------------|
G|-----------------------------------------------------------------|
D|-7-7-7-7-7-7-7-7-7-7-7-7-7-7-7-7-9-9-9-9-9-9-9-9-9-9-9-9-9-9-9-9-|
A|-4-4-4-4-4-4-4-4-5-5-5-5-5-5-5-5-7-7-7-7-7-7-7-7-7-7-7-7-7-7-7-7-|
E|-----------------------------------------------------------------|

 Bridge X4
e|-5--5--5-5-5-5---5-5-5----------0--0--0--0--0-|
B|-5--5--5-5-5-5---5-5-5-7---6----0--0--0--0--0-|
G|-6--6--6-6-6-6---6-6-6-7---6----2--2--2--2--2-|
D|-7--7--7-7-7-7---7-7-7-7---6----2--2--2--2--2-|
A|-7--7--7-7-7-7---7-7-7-5---4----2--2--2--2--2-|
E|-5--5--5-5-5-5---5-5-5----------0--0--0--0--0-|

 Bit after bridge that i dont no what to call...  X1
e|------------------------------------------------------------------------------------------|
B|-10-10-10-10-10-10-10-10-10-10-10-10-10-10-10-10-10-10-10-10-10-10-10-10-10-10-10-10-10-10|
G|-x--x--x--x--x--x--x--x--x--x--x--x--x--x--x--x--x--x--x--x--x--x--x--x--x--x--x--x--x--x-|
D|-7--7--7--7--7--7--7--7--7--7--7--7--7--7--7--7--7--7--7--7--7--7--7--7--7--7--7--7--7--7-|
A|------------------------------------------------------------------------------------------|
E|------------------------------------------------------------------------------------------|

e|---------------------------------------------------------------------------------------------|
B|-10-10-10-10-10-10-10-10-10-10-10-10-10-10-10-10-10-10-10-10-10-10-10-10-10-10-10-10-10-10-10|
G|-x--x--x--x--x--x--x--x--x--x--x--x--x--x--x--x--x--x--x--x--x--x--x--x--x--x--x--x--x--x--x-|
D|-7--7--7--7--7--7--7--7--7--7--7--7--7--7--7--7--7--7--7--7--7--7--7--7--7--7--7--7--7--7--7-|
A|---------------------------------------------------------------------------------------------|
E|---------------------------------------------------------------------------------------------|

 Chorus X3 
e|------------------------------| 
B|-10--------10--------9--------|
G|-x---------x---------x--------|
D|-7---------7---------6--------|
A|------------------------------|
E|------------------------------|

then
e|------------------------------| 
B|-12------------------9--------|
G|-x-------------------x--------|
D|-9-------------------6--------|
A|------------------------------|
E|------------------------------|

then this X2
e|------------------------------| 
B|-10--------10--------9--------|
G|-x---------x---------x--------|
D|-7---------7---------6--------|
A|------------------------------|
E|------------------------------|

 Outro X1
e|-----------------------------------------| 
B|-12------------------10------------------|
G|-x-------------------x-------------------|
D|-9-------------------7-------------------|
A|-----------------------------------------|
E|-----------------------------------------|

ENJOI DUDES PLEASE RATE (AND COMMENT) THIS 5 OR HIGHER LOL!

| /  slide up
| \  slide down
| h  hammer-on
| p  pull-off
| ~  vibrato
| +  harmonic
| x  Mute note
===============================================================================
Comments