Blink 182 - Depends Chords & Tabs

 

Depends Chords & Tabs

Blink 182 Chords & Tabs

Version: 1 Type: Tab 0 ratings
1 star 2 stars 3 stars 4 stars 5 stars
comments

Depends Tab

Author: blink 182
Title: depends
Album: Cheshire cat

     Alright guys I was looking around and this tab wasn't on this site so I thought id put it here for you guys and girls who love blink as much as I do.  This is also one of my first tabs so go easy on me.
 
               This the first verse
    (I don't wanna urinate on myself)
E: -------------------------------------------------------
B: -------------------------------------------------------
G: -------------------------------------------------------
D: --4-4-4-4--------------------------------------------
A: --5-5-5-5---7-7-7-7----5-5-5-5-5-5-5-5---------
E: --------------5-5-5-5----3-3-3-3-3-3-3-3---------
 
[ Tab from: http://www.guitartabs.cc/tabs/b/blink_182/depends_tab.html ]
    (I don't wanna urinate on any one else)
E: -------------------------------------------------------
B: -------------------------------------------------------
G: -------------------------------------------------------
D: --4-4-4-4--------------------------------------------
A: --5-5-5-5---7-7-7-7---5-5-5-5---7-7-7-7---------
E: --------------5-5-5-5---3-3-3-3---5-5-5-5---------

                This is the chorus part
                                (Well I guess it all depends)       
E: -------------------------------------------------------
B: -------------------------------------------------------
G: -------------------------------------------------------
D: --4-4-4-4--------------------------------------------
A: --5-5-5-5---5-5-5-5---7-7-7-7-7-7-7-7----------
E: --------------3-3-3-3----5-5-5-5-5-5-5-5---------

    Then when mark says "step back into life", go back to the first part again.

Well that's it! pretty easy so enjoy!

Comments