Blink 182 - Degenerate Chords & Tabs

 

Degenerate Chords & Tabs

Blink 182 Chords & Tabs

Version: 3 Type: Tab 0 ratings
1 star 2 stars 3 stars 4 stars 5 stars
comments

Degenerate Tab

artist: blink 182 
song:degenerate b.p.m.128 
acuracy:100%
key:
x: percussive sound
( ):hammer on
\:slide
tuning:standard
intro bass and drums then:rhy fig 1:
E-----------------------------------------------------------
B-----------------------------------------------------------
G-----------------------------------------------------------
D-3--x--x--3--x--x--5--3--x--x------------------------------
A-1--x--x--3--x--x--3--3--x--x------------------------------
E-----------------------------------------------------------
play this 3 times with slight dist.
then:rhy fig2
E-----------------------------------------------------------
B-----------------------------------------------------------
G----3------2----------3-----2------------------------------
D------3------------------------3---------------------------
A-1-------3-----0---5------3--------------------------------
E-----------------------------------------------------------
played 3 times with slight dist.
b.p.m. 204       chorus
E-----------------------------------------------------------
B-----------------------------------------------------------
G-3-3-3-3-3-3-3-------------------8-8-8-8-8-8---------------
D-3-3-3-3-3-3-3---3-3-3-3-3-3-3---8-8-8-8-8-8---------------
A-1-1-1-1-1-1-1---3-3-3-3-3-3-3---6-6-6-6-6-6---------------
E-----------------1-1-1-1-1-1-1-0---------------------------

E-----------------------------------------------------------
B-----------------------------------------------------------
G-10-10-10-10-10-10-10---3-3-3-3-3-3-3----------------------
D--8--8--8--8--8--8--8---3-3-3-3-3-3-3--3-3-3-3-3-3-3-------
A--8--8--8--8--8--8--8-0-1-1-1-1-1-1-1--3-3-3-3-3-3-3-------
E---------------------------------------1-1-1-1-1-1-1-------
end chorus end double time feel

E-----------------------------------------------------------
B-----------------------------------------------------------
G-3-3-2-2-2-2----------------3-3-3-3-2-2-2-2-5-3-2-3-5------
D--------------5-5-5-3-3-3-3--------------------------------
A-----------------------------------------------------------
E-----------------------------------------------------------

E-----------------------------------------------------------
B-----------------------------------------------------------
G-3-3-3-3-2-2-2-2----------------3-3-3-3-2-2-2-2-5-3-2-2-5\3
D-----------------5-5-5-3-3-3-3-----------------------------
A-----------------------------------------------------------
E-----------------------------------------------------------
[ Tab from: http://www.guitartabs.cc/tabs/b/blink_182/degenerate_tab_ver_3.html ]
then repeat back to rhy fig 1 3 times then rhy fig 2 3 times then chorus1 time the solo
solo:
E-----------------------------------------------------------
B-----------------------------------------------------------
G-3-3-2-2-2-2----------------3-3-3-3-2-2-2-2-5-3-2-3-5------
D--------------5-5-5-3-3-3-3--------------------------------
A-----------------------------------------------------------
E-----------------------------------------------------------

E-----------------------------------------------------------
B-----------------------------------------------------------
G-3-3-3-3-2-2-2-2----------------3-3-3-3-2-2-2-2-5-3-2-2-5\3
D-----------------5-5-5-3-3-3-3-----------------------------
A-----------------------------------------------------------
E-----------------------------------------------------------

E-----------------------------------------------------------
B-----------------------6-----------------------------------
G-5-3-2-3-5--7-7-8-8-8----8-8\(5)-7-5-7-8-8-7-5-7\5-3-5-----
D-----------------------------------------------------------
A----------------------------------------------------------
E-----------------------------------------------------------

E-----------------------------------------------------------
B-----------------------------------------------------------
G-3-3-3-2-2b-(0)-3-2-2-3-2-0--------------------------------
D-----------------------------0-0-1-1-1-3-1-1-0-------------
A-----------------------------------------------------------
E-----------------------------------------------------------
end on:
E------------
B------------
G------------
D-----1------
A------------
E------------
the drums and bass the play chorus again
double time feel b.m.p.204 ---chorus
E-----------------------------------------------------------
B-----------------------------------------------------------
G-3-3-3-3-3-3-3-------------------8-8-8-8-8-8---------------
D-3-3-3-3-3-3-3---3-3-3-3-3-3-3---8-8-8-8-8-8---------------
A-1-1-1-1-1-1-1---3-3-3-3-3-3-3---6-6-6-6-6-6---------------
E-----------------1-1-1-1-1-1-1-0---------------------------

E-----------------------------------------------------------
B-----------------------------------------------------------
G-10-10-10-10-10-10-10---3-3-3-3-3-3-3----------------------
D--8--8--8--8--8--8--8---3-3-3-3-3-3-3--3-3-3-3-3-3-3-------
A--8--8--8--8--8--8--8-0-1-1-1-1-1-1-1--3-3-3-3-3-3-3-------
E---------------------------------------1-1-1-1-1-1-1-------
end chorus end double time feel
E-----------------------------------------------------------
B-----------------------------------------------------------
G-----------------------------------------------------------
D-----------------------------------------------------------
A------------------------7----------------------------------
E-2---0-----7-(0)-6-(5)-------------------------------------
lil thing tom plays at end ^
thats it ques email me at skaterpim9@aol.com
Comments