Blink 182 - Dancing With Myself Chords & Tabs

 

Dancing With Myself Chords & Tabs

Blink 182 Chords & Tabs

Version: 3 Type: Tab 0 ratings
1 star 2 stars 3 stars 4 stars 5 stars
comments

Dancing With Myself Tab

   
tabbed by allan maxwell
email - death2hippies@hotmail.com

intro/verses
E----------------------------------
B----------------------------------
G-5-5-5-5-4-5-7-5------------------
D----------------------------------
A----------------------------------
e----------------------------------
[ Tab from: http://www.guitartabs.cc/tabs/b/blink_182/dancing_with_myself_tab_ver_3.html ]
chorus P.M  [correct strumming not shown]
E----------------------------------
B----------------------------------
G-5--------------------------------
D-5-----3-----7-----3--------------
A-3-----3-----7-----3--------------
e-------1-----5-----1--------------
  C     F     A     F

solo
E---------------------------------------
B---------------------------------------
G-0-0-0-0-5-5-5-5-7-7-7-7-12-12-12-12-12
D---------------------------------------
A---------------------------------------
e---------------------------------------



How easy is that then???
Comments