Blink 182 - Dancing With Myself Chords & Tabs

 

Dancing With Myself Chords & Tabs

Blink 182 Chords & Tabs

Version: 1 Type: Tab 0 ratings
1 star 2 stars 3 stars 4 stars 5 stars
comments

Dancing With Myself Tab

Standard Tuning(EADGBE)

Intro/Verse
E---------------------------
B---------------------------
G-5-5--5--5--4--5--7--5-----
D---------------------------
A---------------------------
E---------------------------
[ Tab from: http://www.guitartabs.cc/tabs/b/blink_182/dancing_with_myself_tab.html ]
Chorus
E-------------------------------------------------------------------
B-------------------------------------------------------------------
G-5--5-5-5-5-5-5----------------------------------------------------
D-5--5-5-5-5-5-5---3--3-3-3-3-3-3---7--7-7-7-7-7-7---3--3-3-3-3-3-3-
A-3--3-3-3-3-3-3---3--3-3-3-3-3-3---5--5-5-5-5-5-5---3--3-3-3-3-3-3-
E------------------1--1-1-1-1-1-1---5--5-5-5-5-5-5---1--1-1-1-1-1-1-
p.m..................................................................

Solo
E------------------------------------------------------------
B------------------------------------------------------------
G-0-0-0-0--5-5-5-5--7-7-7-7--12-12-12-12---------------------
D------------------------------------------------------------
A------------------------------------------------------------
E------------------------------------------------------------

Thats it. its a pretty easy song.
Comments