Blink 182 - Dammit Chords & Tabs

 

Dammit Chords & Tabs

Blink 182 Chords & Tabs

Version: 7 Type: Tab 0 ratings
1 star 2 stars 3 stars 4 stars 5 stars
comments

Dammit Tab

By: Mike Lash

Standard Tuning(kind of heavy)

Intro
e------------------------------------
B------------------------------------
G------------------------------------
D-----0-2-----0-2-----0-2-----2-2-0--
A-3-3-------------0-0----------------
E---------3-3-------------1-1--------

Verse
e----------------------------------------------
B----------------------------------------------
G--5-x-x-x-x-----------------------------------
D--5-x-x-x-x--5-x-x-x-x--7-x-x-x-x--3-x-x-x-x--
A--3-x-x-x-x--5-x-x-x-x--7-x-x-x-x--3-x-x-x-x--
E-------------3-x-x-x-x--5-x-x-x-x--1-x-x-x-x--
[ Tab from: http://www.guitartabs.cc/tabs/b/blink_182/dammit_tab_ver_7.html ]
e----------------------------------------------
B----------------------------------------------
G--5-5-5-5-5-----------------------------------
D--5-5-5-5-5--5-5-5-5-5--7-7-7-7-7--3-3-3-3-3--
A--3-3-3-3-3--5-5-5-5-5--7-7-7-7-7--3-3-3-3-3--
E-------------3-3-3-3-3--5-5-5-5-5--1-1-1-1-1--

e----------------------------------------------
B----------------------------------------------
G----------------------------------------------
D--5-5-5-5-5-----------------------------------
A--3-3-3-3-3--5-5-5-5-5--7-7-7-7-7--3-3-3-3-3--
E-------------3-3-3-3-3--5-5-5-5-5--1-1-1-1-1--

Solo
e-----------------------------------
B-----------------------------------
G-----------------------------------
D-2------0-2----2------0-2---0-2----
A---3--------3----3--------3-----3--
E-----3-------------3---------------

Well thats it. It\\\'s a very easy song! Remember x\\\'s=palm mute.
Comments