Blink 182 - Dammit Chords & Tabs

 

Dammit Chords & Tabs

Blink 182 Chords & Tabs

Version: 3 Type: Tab 2 ratings
1 star 2 stars 3 stars 4 stars 5 stars
comments

Dammit Tab

   
Dammit by Blink-182
Submitted by Dave_Hendrix(Dave_3085@yahoo.com)

Intro:
E---------------------------------------------------------- 
B---------------------------------------------------------- 
G----------------------------------------------------------
D--------0-0--2---------0-0--2---------0-0--2---------2-2—0
A-3-3----------------------------0--0---------------------- 
E------------------3-3----------------------------1-1------ 

E---------------------------------------------------------- 
B---------------------------------------------------------- 
G---------------------------------------------------------- 
D--------0-0--2---------0-0--2---------0-0--2---------2-2—0
A-3-3----------------------------0--0----------------------
E------------------3-3----------------------------1-1------ 

E---------------------------------------------------------- 
B---------------------------------------------------------- 
G---------------------------------------------------------- 
D--------0-0--2---------0-0--2---------0-0--2---------2-2—0 
A-3-3----------------------------0-0----------------------- 
E------------------3-3----------------------------1-1------ 

E---------------------------------------------------------- 
B---------------------------------------------------------- 
G---------------------------------------------------------- 
D--------0-0--2---------0-0--2---------0-0--2---------2-2—0 
A-3-3----------------------------0-0-----------------------  
E------------------3-3----------------------------1-1------ 

Verse 1:
E---------------------------------------------------------------- 
B----------------------------------------------------------------
G-5-x-x-x-x-x-x-x------------------------------------------------ 
D-5-x-x-x-x-x-x-x-5-x-x-x-x-x-x-x-7-x-x-x-x-x-x-x-3-x-x-x-x-x-x-x
A-3-x-x-x-x-x-x-x-5-x-x-x-x-x-x-x-7-x-x-x-x-x-x-x-3-x-x-x-x-x-x-x 
E-----------------3-x-x-x-x-x-x-x-5-x-x-x-x-x-x-x-1-x-x-x-x-x-x-x 

E---------------------------------------------------------------- 
B---------------------------------------------------------------- 
G-5-x-x-x-x-x-x-x------------------------------------------------ 
D-5-x-x-x-x-x-x-x-5-x-x-x-x-x-x-x-7-x-x-x-x-x-x-x-3-x-x-x-x-x-x-x 
A-3-x-x-x-x-x-x-x-5-x-x-x-x-x-x-x-7-x-x-x-x-x-x-x-3-x-x-x-x-x-x-x
E-----------------3-x-x-x-x-x-x-x-5-x-x-x-x-x-x-x-1-x-x-x-x-x-x-x

E---------------------------------------- 
B---------------------------------------- 
G-5-5-5-5-5------------------------------  
D-5-5-5-5-5-5-5-5-5-5-7-7-7-7-7-3-3-3-3-3 
A-3-3-3-3-3-5-5-5-5-5-7-7-7-7-7-3-3-3-3-3 
E-----------3-3-3-3-3-5-5-5-5-5-1-1-1-1-1 

E---------------------------------------- 
B---------------------------------------- 
G-5-5-5-5-5------------------------------
D-5-5-5-5-5-5-5-5-5-5-7-7-7-7-7-3-3-3-3-3
A-3-3-3-3-3-5-5-5-5-5-7-7-7-7-7-3-3-3-3-3
E-----------3-3-3-3-3-5-5-5-5-5-1-1-1-1-1

Interlude:
E---------------------------------------------------------- 
B---------------------------------------------------------- 
G---------------------------------------------------------- 
D--------0-0--2---------0-0--2---------0-0--2---------2-2—0 
A-3-3----------------------------0-0-----------------------  
E------------------3-3----------------------------1-1------ 

E---------------------------------------------------------- 
B---------------------------------------------------------- 
G---------------------------------------------------------- 
D--------0-0--2---------0-0--2---------0-0--2---------2-2—0 
A-3-3----------------------------0-0----------------------- 
E------------------3-3----------------------------1-1------ 

Verse 2:
E---------------------------------------------------------------- 
B---------------------------------------------------------------- 
G-5-x-x-x-x-x-x-x------------------------------------------------ 
D-5-x-x-x-x-x-x-x-5-x-x-x-x-x-x-x-7-x-x-x-x-x-x-x-3-x-x-x-x-x-x-x 
A-3-x-x-x-x-x-x-x-5-x-x-x-x-x-x-x-7-x-x-x-x-x-x-x-3-x-x-x-x-x-x-x 
E-----------------3-x-x-x-x-x-x-x-5-x-x-x-x-x-x-x-1-x-x-x-x-x-x-x

E---------------------------------------------------------------- 
B---------------------------------------------------------------- 
G-5-x-x-x-x-x-x-x------------------------------------------------ 
D-5-x-x-x-x-x-x-x-5-x-x-x-x-x-x-x-7-x-x-x-x-x-x-x-3-x-x-x-x-x-x-x 
A-3-x-x-x-x-x-x-x-5-x-x-x-x-x-x-x-7-x-x-x-x-x-x-x-3-x-x-x-x-x-x-x 
E-----------------3-x-x-x-x-x-x-x-5-x-x-x-x-x-x-x-1-x-x-x-x-x-x-x

E---------------------------------------- 
B---------------------------------------- 
G-5-5-5-5-5------------------------------
D-5-5-5-5-5-5-5-5-5-5-7-7-7-7-7-3-3-3-3-3
A-3-3-3-3-3-5-5-5-5-5-7-7-7-7-7-3-3-3-3-3
E-----------3-3-3-3-3-5-5-5-5-5-1-1-1-1-1

E---------------------------------------- 
B---------------------------------------- 
G-5-5-5-5-5------------------------------ 
D-5-5-5-5-5-5-5-5-5-5-7-7-7-7-7-3-3-3-3-3
A-3-3-3-3-3-5-5-5-5-5-7-7-7-7-7-3-3-3-3-3
E-----------3-3-3-3-3-5-5-5-5-5-1-1-1-1-1

Chorus 1:
E------------------------------------------------------------------------------------ 
B------------------------------------------------------------------------------------ 
G-5-5-5-5-5-5-5-5-5-5-5-5-5-5-------------------------------------------------------- 
D-5-5-5-5-5-5-5-5-5-5-5-5-5-5-5-5-5-5-5-5-5-5-5-5-5-5-5-5-7-7-7-7-7-7-7-7-7-7-7-7-7-7
A-3-3-3-3-3-3-3-3-3-3-3-3-3-3-5-5-5-5-5-5-5-5-5-5-5-5-5-5-7-7-7-7-7-7-7-7-7-7-7-7-7-7
E-----------------------------3-3-3-3-3-3-3-3-3-3-3-3-3-3-5-5-5-5-5-5-5-5-5-5-5-5-5-5
[ Tab from: http://www.guitartabs.cc/tabs/b/blink_182/dammit_tab_ver_3.html ]
E------------------------------------------------------------------------------------ 
B------------------------------------------------------------------------------------ 
G-------------------------------5-5-5-5-5-5-5-5-5-5-5-5-5----------------------------
D-3-3-3-3-3-3-3-3-3-3-3-3-3-3-3-5-5-5-5-5-5-5-5-5-5-5-5-5-5-5-5-5-5-5-5-5-5-5-5-5-5-5
A-3-3-3-3-3-3-3-3-3-3-3-3-3-3-3-3-3-3-3-3-3-3-3-3-3-3-3-3-5-5-5-5-5-5-5-5-5-5-5-5-5-5
E-1-1-1-1-1-1-1-1-1-1-1-1-1-1-1---------------------------3-3-3-3-3-3-3-3-3-3-3-3-3-3

E-------------------------------------------------------- 
B-------------------------------------------------------- 
G-------------------------------------------------------- 
D-7-7-7-7-7-7-7-7-7-7-7-7-7-7-3-3-3-3-3-3-3-5-5-5-5-5-5-5
A-7-7-7-7-7-7-7-7-7-7-7-7-7-7-3-3-3-3-3-3-3-5-5-5-5-5-5-5
E-5-5-5-5-5-5-5-5-5-5-5-5-5-5-1-1-1-1-1-1-1-3-3-3-3-3-3-3

E---------------------------------------------------------- 
B---------------------------------------------------------- 
G---------------------------------------------------------- 
D--------0-0--2---------0-0--2---------0-0--2---------2-2—0 
A-3-3----------------------------0-0----------------------- 
E------------------3-3----------------------------1-1------ 

E---------------------------------------------------------- 
B---------------------------------------------------------- 
G---------------------------------------------------------- 
D--------0-0--2---------0-0--2---------0-0--2---------2-2—0 
A-3-3----------------------------0-0-----------------------  
E------------------3-3----------------------------1-1------ 

Verse 3:
E---------------------------------------------------------------- 
B---------------------------------------------------------------- 
G-5-x-x-x-x-x-x-x------------------------------------------------ 
D-5-x-x-x-x-x-x-x-5-x-x-x-x-x-x-x-7-x-x-x-x-x-x-x-3-x-x-x-x-x-x-x
A-3-x-x-x-x-x-x-x-5-x-x-x-x-x-x-x-7-x-x-x-x-x-x-x-3-x-x-x-x-x-x-x
E-----------------3-x-x-x-x-x-x-x-5-x-x-x-x-x-x-x-1-x-x-x-x-x-x-x

E----------------------------------------------------------------
B---------------------------------------------------------------- 
G-5-x-x-x-x-x-x-x------------------------------------------------ 
D-5-x-x-x-x-x-x-x-5-x-x-x-x-x-x-x-7-x-x-x-x-x-x-x-3-x-x-x-x-x-x-x
A-3-x-x-x-x-x-x-x-5-x-x-x-x-x-x-x-7-x-x-x-x-x-x-x-3-x-x-x-x-x-x-x
E-----------------3-x-x-x-x-x-x-x-5-x-x-x-x-x-x-x-1-x-x-x-x-x-x-x

E---------------------------------------- 
B----------------------------------------
G-5-5-5-5-5------------------------------ 
D-5-5-5-5-5-5-5-5-5-5-7-7-7-7-7-3-3-3-3-3
A-3-3-3-3-3-5-5-5-5-5-7-7-7-7-7-3-3-3-3-3
E-----------3-3-3-3-3-5-5-5-5-5-1-1-1-1-1

E----------------------------------------
B---------------------------------------- 
G-5-5-5-5-5------------------------------ 
D-5-5-5-5-5-5-5-5-5-5-7-7-7-7-7-3-3-3-3-3
A-3-3-3-3-3-5-5-5-5-5-7-7-7-7-7-3-3-3-3-3
E-----------3-3-3-3-3-5-5-5-5-5-1-1-1-1-1

Chorus 2:
E------------------------------------------------------------------------------------ 
B------------------------------------------------------------------------------------ 
G-5-5-5-5-5-5-5-5-5-5-5-5-5-5-------------------------------------------------------- 
D-5-5-5-5-5-5-5-5-5-5-5-5-5-5-5-5-5-5-5-5-5-5-5-5-5-5-5-5-7-7-7-7-7-7-7-7-7-7-7-7-7-7
A-3-3-3-3-3-3-3-3-3-3-3-3-3-3-5-5-5-5-5-5-5-5-5-5-5-5-5-5-7-7-7-7-7-7-7-7-7-7-7-7-7-7
E-----------------------------3-3-3-3-3-3-3-3-3-3-3-3-3-3-5-5-5-5-5-5-5-5-5-5-5-5-5-5

E------------------------------------------------------------------------------------ 
B------------------------------------------------------------------------------------ 
G-------------------------------5-5-5-5-5-5-5-5-5-5-5-5-5----------------------------
D-3-3-3-3-3-3-3-3-3-3-3-3-3-3-3-5-5-5-5-5-5-5-5-5-5-5-5-5-5-5-5-5-5-5-5-5-5-5-5-5-5-5
A-3-3-3-3-3-3-3-3-3-3-3-3-3-3-3-3-3-3-3-3-3-3-3-3-3-3-3-3-5-5-5-5-5-5-5-5-5-5-5-5-5-5
E-1-1-1-1-1-1-1-1-1-1-1-1-1-1-1---------------------------3-3-3-3-3-3-3-3-3-3-3-3-3-3

E-------------------------------------------------------- 
B-------------------------------------------------------- 
G-------------------------------------------------------- 
D-7-7-7-7-7-7-7-7-7-7-7-7-7-7-3-3-3-3-3-3-3-5-5-5-5-5-5-5
A-7-7-7-7-7-7-7-7-7-7-7-7-7-7-3-3-3-3-3-3-3-5-5-5-5-5-5-5
E-5-5-5-5-5-5-5-5-5-5-5-5-5-5-1-1-1-1-1-1-1-3-3-3-3-3-3-3

Interlude:
E------------------------------------------------------ 
B-5----7----5----5----5----7----5----5----------------- 
G-5----7----5----5----5----7----5----5--5-5-5-5-5-5-5-5
D-5----5----5----3----5----5----5----3--x-x-x-x-x-x-x-x
A-3----5----3----3----3----5----3----3--3-3-3-3-3-3-3-3
E------------------------------------------------------ 

Outro:
E----------------------------------------------------------
B---------------------------------------------------------- 
G---------------------------------------------------------- 
D--------0-0--2---------0-0--2---------0-0--2---------2-2—0
A-3-3----------------------------0-0----------------------- 
E------------------3-3----------------------------1-1------ 

E---------------------------------------------------------- 
B---------------------------------------------------------- 
G---------------------------------------------------------- 
D--------0-0--2---------0-0--2---------0-0--2---------2-2—0
A-3-3----------------------------0-0----------------------- 
E------------------3-3----------------------------1-1------ 

E---------------------------------------------------------- 
B---------------------------------------------------------- 
G---------------------------------------------------------- 
D--------0-0--2---------0-0--2---------0-0--2---------2-2—0
A-3-3----------------------------0-0----------------------- 
E------------------3-3----------------------------1-1------ 

E---------------------------------------------------------- 
B---------------------------------------------------------- 
G---------------------------------------------------------- 
D--------0-0--2---------0-0--2---------0-0--2---------2-2—0
A-3-3----------------------------0-0----------------------- 
E------------------3-3----------------------------1-1------ 

E--
B--
G-5
D-5
A-3
E--

Comments