Blink 182 - Dammit Chords & Tabs

 

Dammit Chords & Tabs

Blink 182 Chords & Tabs

Version: 13 Type: Tab 0 ratings
1 star 2 stars 3 stars 4 stars 5 stars
comments

Dammit Tab

   
Title: dammit
Artist: blink182
Album: dude ranch
Tuning: drop D (D, A, D, G, B, E)
                                INTRO/MAIN RIFF
E------------------------------------------------|
B------------------------------------------------|
G------------------------------------------------|
D------------------------------------------------|
A------5-5-5-7---5-5-5-7----5-5-5-7----7-7-7-5---|
D-10-10-------5-5--------7-7--------3-3----------|
[ Tab from: http://www.guitartabs.cc/tabs/b/blink_182/dammit_tab_ver_13.html ]
                               VERSE
E---------------------------------------------------------------------------|
B---------------------------------------------------------------------------|
G-*-----------------------*-----------------*---------------*---------------|
D-10-10-10-10-10-10-10-10-5-5-5-5-5-5-5-5-5-7-7-7-7-7-7-7-7-3-3-3-3-3-3-3-3-|
A-10-10-10-10-10-10-10-10-5-5-5-5-5-5-5-5-5-7-7-7-7-7-7-7-7-3-3-3-3-3-3-3-3-|
D-10-10-10-10-10-10-10-10-5-5-5-5-5-5-5-5-5-7-7-7-7-7-7-7-7-3-3-3-3-3-3-3-3-|
  P.M.......................................................................
        PALM MUTE THE FIRST2 TIMES AND STRUM THE LAST 2 NORMALLY
  *=DON'T PALM MUTE WHILE PALM MUTING
                               CHORUS
E----------------------------------------------------------------------------|
B----------------------------------------------------------------------------|
G----------------------------------------------------------------------------|
D10-10-10-10-10-10-10-10-10-10-10-10-10-10-10-10-5-5-5-5-5-5-5-5-5-5-5-5-5-5-|
A10-10-10-10-10-10-10-10-10-10-10-10-10-10-10-10-5-5-5-5-5-5-5-5-5-5-5-5-5-5-|
D10-10-10-10-10-10-10-10-10-10-10-10-10-10-10-10-5-5-5-5-5-5-5-5-5-5-5-5-5-5-|

                                CHORUS (CONTINUED)
E---------------------------------------------------------------------------|
B---------------------------------------------------------------------------|
G---------------------------------------------------------------------------|
D5-5-7-7-7-7-7-7-7-7-7-7-7-7-7-7-7-7-3-3-3-3-3-3-3-3-3-3-3-3-3-3-3-3--------|
A5-5-7-7-7-7-7-7-7-7-7-7-7-7-7-7-7-7-3-3-3-3-3-3-3-3-3-3-3-3-3-3-3-3--------|
D5-5-7-7-7-7-7-7-7-7-7-7-7-7-7-7-7-7-3-3-3-3-3-3-3-3-3-3-3-3-3-3-3-3--------|

                                     INTERLUDE (CLEAN)
E---------------------------------------------------------------------------|
B---------------------------------------------------------------------------|
G-----------10-------------------5--------------7-----------------------3---|
D-----------10-------------------5--------------7-----------------------3---|
A-----------10-------------------5--------------7-----------------------3---|
D-----------10-------------------5--------------7-----------------------3---|

ORDER:
MAIN RIFF X4                      THERE YOU HAVE IT!
VERSE X4
MAIN RIFFX2
VERSE X4                           ANY QUESTIONS OR COMMENTS EMAIL ME AT
CHORUS X2                                     flipzero97@yahoo.com
MAIN RIFF X2
VERSE X4
CHORUS X2
INTERLUDE X2
MAIN RIFF X4
Comments