Blink 182 - Dammit Chords & Tabs

 

Dammit Chords & Tabs

Blink 182 Chords & Tabs

Version: 10 Type: Tab 0 ratings
1 star 2 stars 3 stars 4 stars 5 stars
comments

Dammit Tab

Tabbed by: Fenderstrat
Accuracy: 100%
Blink 182: Dammit
This is the correct tab.

Intro x4
e|----------------------------------------------------------
B|----------------------------------------------------------
G|----------------------------------------------------------
D|-------0-0-2------0-0-2-------0-0-2------2-2-0------------
A|--3-3--------------------0-0------------------------------
E|-------------3-3--------------------1-1-------------------

Verse {1st part} x2   
e|----------------------------------------------------------
B|----------------------------------------------------------
G|--5-55555-------------------------------------------------
D|--5-55555--5-55555--2-22222--3-33333----------------------
A|--3-33333--5-55555--2-22222--1-11111----------------------
E|-----------3-33333--0-00000--1-11111----------------------
      .....    .....    .....    .....
       p.m      p.m      p.m      p.m
[ Tab from: http://www.guitartabs.cc/tabs/b/blink_182/dammit_tab_ver_10.html ]
Verse {2nd part} x2
e|----------------------------------------------------------
B|----------------------------------------------------------
G|--5-55-55-------------------------------------------------
D|--5-55-55---5-55-55---2-22-22---3-33-33-------------------
A|--3-33-33---5-55-55---2-22-22---1-11-11-------------------
E|------------3-33-33---0-00-00---1-11-11-------------------

Chorus x2
e|----------------------------------------------------------
B|----------------------------------------------------------
G|--55555555------------------------------------------------
D|--55555555--55555555--22222222--33333333------------------
A|--33333333--55555555--22222222--33333333------------------
E|------------33333333--00000000--11111111------------------

Solo
e|----------------------------------------------------------
B|--5-------3-5-------3-5---3-5-------3-5-------------------
G|----5---5-----5---5-----5-----5---5-----------------------
D|------5---------5---------------5-------------------------
A|----------------------------------------------------------
E|----------------------------------------------------------

ORDER
intro x4
verse {1st part} x2
verse {2nd part} x2
chorus x2
intro x2
verse {1st part} x2
verse {2nd part} x2
chorus x2
solo
intro till end 
Comments