Blink 182 - Dammit Chords & Tabs

 

Dammit Chords & Tabs

Blink 182 Chords & Tabs

Version: 1 Type: Tab 3 ratings
1 star 2 stars 3 stars 4 stars 5 stars
comments

Dammit Tab



         e-----------------------------
         b-----------------------------
         g-----------------------------
         d-----------------------------
         a--3--3--5--5---7---5--5-----7
         E----------3---------3--------


[ Tab from: http://www.guitartabs.cc/tabs/b/blink_182/dammit_tab.html ]
         e-----------------------
         b-----------------------
         g-----------------------
         d-----------------------
         a--5---5---1---1--------





    Palm mute 

3x palm mute then 1 time up 

 ----------------------------------------
 ---------------------------------------- 
 ----5-----------------------------------
 ----5-----5-------7-----3---------------
 ----3-----5-------7-----3---------------
 ----------3-------5-----1--------------- 



this is my first tab if u dont get thats all right but i think u will 
Comments