Blink 182 - Dammit Chords & Tabs

 

Dammit Chords & Tabs

Blink 182 Chords & Tabs

Version: 8 Type: Bass Tab 0 ratings
1 star 2 stars 3 stars 4 stars 5 stars
comments

Dammit Bass Tab

alrighty, everyone else did a good job,
but i really think that somethings missing.
maybe it was just me, but i like to play with
the guitar at the beggining, so i added it.

standard tuning
     first part of intro 
G|------------------------------------------|
D|------0-0-2------0-0-2------0-0-2--3-2-0--|
A|--3-3-------------------0-0---------------|
E|-------------3-3--------------------------|

      second part of intro x2/ intro to verse x2
G|----------------------------------|
D|----------------------------------|
A|--3-3333--------------------------|
E|----------3-3333--5-5555--1-1111--|
[ Tab from: http://www.guitartabs.cc/tabs/b/blink_182/dammit_btab_ver_8.html ]
      verse x4
G|--------------------------------------|
D|--------------------------------------|
A|--3-33333-----------------------------|
E|-----------3-33333--5-55555--1-11111--|

     chorus
G|------------------------------------------------------|
D|------------------------------------------------------|
A|--3-33-33-33------------------------------------------|
E|-------------0-3-33-33-33-0--5-55-55-55-0-1-11-11-11-0|

    bridge x2
G|--------------------|
D|-------0----2----3--|
A|-3------------------| let each not ring
E|--------------------|

last note
G|-----|
D|-----|
A|--3--|  let this one ring too
E|-----|

i was going to sit here and put in everytime you
play a part and how many times, but i realized, i 
don't have as much time as i thought, but you're 
smart kids. you can do it!!!
Comments