Blink 182 - Dammit Chords & Tabs

 

Dammit Chords & Tabs

Blink 182 Chords & Tabs

Version: 4 Type: Bass Tab 0 ratings
1 star 2 stars 3 stars 4 stars 5 stars
comments

Dammit Bass Tab

name=Jimmy
band=Blink 182
song=Dammit
inst_type=Bass
|-----------------|-----------------|----------|
|-----------------|-----------------|----------|
|-3-3-3-3-3-------|-----------------|----------|
|-----------3-3-3-|-3-3-5-5-5-5-5-1-|-1-1-1-1--|


|-----------------|-----------------|----------|
|-----------------|-----------------|----------|
|-3-3-3-3-3-------|-----------------|----------|
|-----------3-3-3-|-3-3-5-5-5-5-5-1-|-1-1-1-1--|

[ Tab from: http://www.guitartabs.cc/tabs/b/blink_182/dammit_btab_ver_4.html ]
|-----------------|-----------------|----------|
|-----------------|-----------------|----------|
|-3-3-3-3-3-------|-----------------|----------|
|-----------3-3-3-|-3-3-5-5-5-5-5-1-|-1-1-1-1--|


|-----------------|-----------------|----------|
|-----------------|-----------------|----------|
|-3-3-3-3-3-------|-----------------|----------|
|-----------3-3-3-|-3-3-5-5-5-5-5-1-|-1-1-1-1--|


|-----------------|-----------------|----------|
|-----------------|-----------------|----------|
|-3-3-3-3-3-------|-----------------|----------|
|-----------3-3-3-|-3-3-5-5-5-5-5-1-|-1-1-1-1--|
Comments