Blink 182 - Dammit Chords & Tabs

 

Dammit Chords & Tabs

Blink 182 Chords & Tabs

Version: 1 Type: Bass Tab 0 ratings
1 star 2 stars 3 stars 4 stars 5 stars
comments

Dammit Bass Tab

   
Band: blink 182
Song: Dammit
Album: Dude Ranch

Verse:
G:----------------------------------------------------
D:----------------------------------------------------
A:-3-3-3-3-3-3----------------------------------------
E:-------------3-3-3-3-3-3--5-5-5-5-5-5--1-1-1-1-1-1--

Right before chorus:
G:---------------------------------------------------------------
D:---------------------------------------------------------------
A:-3-3-3-3-3-3---------------------------------------------------
E:-------------3-3-3-3-3-3--5-5-5-5-5-5/13-13-13-13-13-13-13-13--
[ Tab from: http://www.guitartabs.cc/tabs/b/blink_182/dammit_btab.html ]
Chorus:
G:------------------------------------------------------------------
D:------------------------------------------------------------------
A:-3-3-3-3-3-3-----------------------------------------3-3-3-3-3-3--
E:-------------3-3-3-3-3-3--5-5-5-5-5-5--1-1-1-1-1-1----------------

G:---------------------------------------------------
D:---------------------------------------------------
A:---------------------------------------------------
E:-3-3-3-3-3-3--5-5-5-5-5-5/13-13-13-13/15-15-15-15--

"Well I guess this is growing up..."
G:
D:-----------------------------------------------------
A:-3-3-3-3-3-3-----------------------------------------
E:-------------3-3-3-3-3-3--5-5-5-5-5-5--1-1-1-1-1-1---

Bridge:(This is how I heard it live...the rhythm is sorta weird,but it's not 
hard to figure out...)
G:---------------------------------------------5------5-----
D:---5------5------7------7------9------9----3---3--3---3---
A:-3---3--3---3--5---5--5---5--7---7--7---7-----------------
E:----------------------------------------------------------

TAB: Matt Nielsen  zorg500@hotmail.com

Comments